tablaturas, partituras y acordes para guitarra
Busca por banda/artista:
 
y/o título de la canción:
A B C D E F G H I J K L M N O P Q R S T U V W X Y Z 0 1 2 3 4 5 6 7 8 9 / Top 100 tabs
Categorías
Usuarios
usuario:
Darse de alta
password:
Artistas más visitados
Publicidad
TOP acordes y tablaturas de Fun people


Pilar
de Fun people
Puntúa este acorde/tab:      
(0.4/5)
Reportar este acorde/tab
  Añadir a tus favoritos
  Imprimir
Te fui a buscar, te llame y no estabas
y me entere que alguien te robo mi vida
lloro y no puedo encontrarte pilar.
Reencarnarte en una flor
reencarnarte en un nido
dejame zoñarlo, dejame ser niño.
Encuentro consuelo solo en mis sueños
que te veo jugar en las praderas de españa
que te veo cantar el La Coruña, en España
cuando hace frio bajo la ventana
cuando hace calor bajo la granada
recordando tu niñes en la Coruña España
Extraño tu calor y tus consejos .. Pilar
y encuentro consuelo cuando oigo un trino,
encuentro consuelo cundo huelo una flor,
dejame creerlo, dejame ser niño ....
... una vez mas!!



---------------------------------------------------------------------
---------------------------------------------------------------------
---------------------------------------------------------------------
---------------------------------------------------------------------
-10---9---7---5---10---9---7---5---10---9---7---5---10---9---7---5---
-08---7---5---3---08---7---5---3---08---7---5---3---08---7---5---3---



---------------------------------------------------------------------
---------------------------------------------------------------------
---------------------------------------------------------------------
---------------------------------------------------------------------
-10---9---7---5---10---9---7---5---10-10-10-10-10-10-10-10-----------
-08---7---5---3---08---7---5---3---08-08-08-08-08-08-08-08-----------



---------------------------------------------------------------------
---------------------------------------------------------------------
---------------------------------------------------------------------
---------------------------------------------------------------------
-10---9---7---5---10---9---7---5---10---9---7---5---10---9---7---5---
-08---7---5---3---08---7---5---3---08---7---5---3---08---7---5---3---



------------------------
------------------------
------------------------
------------------------
-10-10-10-10-10-10-10-10
-08-08-08-08-08-08-08-08



---------------------------------------------------------------------
---------------------------------------------------------------------
---------------------------------------------------------------------
---------------------------------------------------------------------
-10---9---7---5---10---9---7---5---10---9---7---5---10---9---7---5---
-08---7---5---3---08---7---5---3---08---7---5---3---08---7---5---3---


------------------------
------------------------
------------------------
------------------------
-10-10-10-10-10-10-10-10
-08-08-08-08-08-08-08-08



-------------------------------------
------------------------------------- 
-------------------------------------  	X 9
-------------------5-5-5-5-5-5-5-5-5-  /
-5-5-5-5-5-5-5-5-5-3-3-3-3-3-3-3-3-3- /
-3-3-3-3-3-3-3-3-3-------------------/
		   
AcordesyTabs.com © 2008 Acordes y Tablaturas para guitarra. Tabs and Chords for guitar. Aviso Legal - Contacto
El uso de este sitio está sujeto a la aceptación de los términos y condiciones (18 usuarios online)