tablaturas, partituras y acordes para guitarra
Busca por banda/artista:
 
y/o título de la canción:
A B C D E F G H I J K L M N O P Q R S T U V W X Y Z 0 1 2 3 4 5 6 7 8 9 / Top 100 tabs
Categorías
Usuarios
usuario:
Darse de alta
password:
Artistas más visitados
Publicidad
TOP acordes y tablaturas de Attaque 77


Estás en: Inicio > Letra A > Acordes y tablaturas de Attaque 77 > Pinini Reggae
Pinini Reggae
de Attaque 77
Puntúa este acorde/tab:      
(0.5/5)
Reportar este acorde/tab
  Añadir a tus favoritos
  Imprimir
*Intro 1 (bajo)
 Intro 2: (Dm  A)*II  x 4   (G  A) x 3 Dm
 
*Dm 				   
Skip off me while you dig up here. 
A
Everybody knows you're gonna be hip
Dm
Pinini reggae gonna make you flip.
A
Pinini reggae gonna make you sleep

Pinini reggae gonna keep you up.
Pinini reggae gonna keep you down
Pinini reggae gonna spin you down.
Pinini reggae gonna bring you down

G A            G A
    Don't laugh,   don't cry
G       A            Dm
 Pinini reggae gonna kill you by and by

(Dm  A) x 4 (*Punteo)

Don't fight, don't laugh, don't cry
Pinini reggae gonna get you by and by

Everybody knows you're gonna go down
Everybody knows you're gonna go up
Pinini reggae gonna make you throw
Pinini reggae gonna make you freak up

Everybody all the way up
Everybody all the way down
Pinini reggae gonna take you here
Pinini reggae gonna bring you down

Don't laugh, don't cry
Pinini reggae gonna get you by and by

*desde aca no hay punteos
(Dm  A) x 4

C'mon, c'mon off
Pinini reggae gonna get your soul soft

Everybody know.
Pinini reggae gonna make it snow
Pinini reggae gonna make it rain.
Pinini reggae gonna make you come

Again and again and again and again,
again and again and again and again
Pinini reggae gonna bring you up.
Pinini reggae gonna shoot you down

Don't laugh, don't cry
Pinini reggae gonna kill you by and by

(Dm  A) x 4 (*Punteo 2)

Don't laugh, don't cry
Pinini reggae gonna catch you by and by 

(Dm  A) x 11  Dm (*Punteo 3)






*Intro (Bajo)
G ---------------------------------------|------------------------------------------
D ---------------------------------------|------------------------------------------
A --8----8------8------------------------|--8----8------7/8-8-----------------------  x 2
E ----10---10-----10-8-5---8-5-----8-5---|----10---10---------10-8-5---8-5-----8-5--   


*II Sobre estas notas (Dm  A  -sin voces-), la guitarra hace:
e --------------------------------------------------
B -----------------6/8-6---------------------5/8-5--
G --------------------------------------------------
D -----7--5--3-------------------7--5--3------------
A --5-----------5-------------5-----------3---------
E --------------------------------------------------


*Y cuando Ciro canta todo lo que no sea estribillo:
e -----------------------------------------------------------------------
B ----------------------------6/8-6---------------------------------5/8-5--
Ej: Skip off me while you dig up here. Everybody knows you're gonna be hip

*Punteo
e ----------------------         ---------
B --13-12-11-10-8-6-5-4-   x 3   --5/65--   x 3
G ----------------------         ---------

*Punteo 2
e ----------------------------
B ----6-8-6-------------5-6-5-
G ----------------------------  

*Punteo 3
e ------------------------------------------------
B ------------------------------------------------
G ------------------------------------------------
D -----7--5--3-----7-7-----------7--5--3-----5-5--   x 2
A--5-----------5-------------5-----------3--------
E ------------------------------------------------

e --------------------------------------------------
B -----------------6/8-6---------------------5/8-5--
G --------------------------------------------------
D -----7--5--3-------------------7--5--3------------  Hasta el final
A --5-----------5-------------5-----------3---------
E --------------------------------------------------


Cualquier duda, comentario o correccion, mandenme un mail.
		   
AcordesyTabs.com © 2008 Acordes y Tablaturas para guitarra. Tabs and Chords for guitar. Aviso Legal - Contacto
El uso de este sitio está sujeto a la aceptación de los términos y condiciones (23 usuarios online)