tablaturas, partituras y acordes para guitarra
Busca por banda/artista:
 
y/o título de la canción:
A B C D E F G H I J K L M N O P Q R S T U V W X Y Z 0 1 2 3 4 5 6 7 8 9 / Top 100 tabs
Categorías
Usuarios
usuario:
Darse de alta
password:
Artistas más visitados
Publicidad
TOP acordes y tablaturas de Alejandro Sanz


Estás en: Inicio > Letra A > Acordes y tablaturas de Alejandro Sanz > Pisando Fuerte
Pisando Fuerte
de Alejandro Sanz
Puntúa este acorde/tab:      
(0.2/5)
Reportar este acorde/tab
  Añadir a tus favoritos
  Imprimir
(acordes)   
  Ya vez mi edad es tan difícil de llevar       
  mezcla de pasión e ingenuidad,difícil controlar 
       
  Tu siempre tan fantástica, y yo se
  que tengo mucho que aprender, pero tu también
  
  Sigo pretendiendo desnudar
  a media luz tu intimidad, y vestir mi piel;
  sabes aprovecharte de,la luz que desprendo al mirarte

  Mi habitacion en silencio está, templado el aire y yo
  que pienso en soledad

  Locamente enamorado, locamente enamorado
  no se que es lo que me pasa pero solo puedo pensar en ti, no
  Locamente enamorado, locamente enamorado, si, yeah 
    
  Todo ira bien, ya verás;me digo por que quiero estar, convencido
 
GUITARRA ELÉCTRICA

2° guitarra: (pongan el amplificador en bajo)
Son tan fuertes tus miradas, elegantes y estudiadas
e----------------------------------------------------------
B----------------------------------------------------------
G----5-----------------------------------------------------
D----5----------------5-5----7-------------------2---------
A----3----------------5-5----7-------------------2---------
E---------------------3-3----5-------------------0---------

Yo soy solo un adolescente pero entraré en tu mente
e---------------------------------------------------------
B---------------------------------------------------------
G---------------------------------------------------------
D--------3--------------3---------------------------------
A--------3--------------3---------------------------------
E--------1--------------1---------------------------------

 Pisando fuerte, pisando fuerte 
e----------------------------------------------------------
B----------------------------------------------------------
G----------------------------2/9---------------------------
D-5--------------------------------------------------------
A-5--------------------------------------------------------
E-3--------------------------------------------------------	

   Compartiendo las miradas, con las luces apagadas
e----------------------------------------------------------
B----------------------------------------------------------
G----5-----------------------------------------------------
D----5----------------5-5----7-------------------2---------
A----3----------------5-5----7-------------------2---------
E---------------------3-3----5-------------------0---------

empiezo a sentirme yo mismo a sentirme mas seguro
e---------------------------------------------------------
B---------------------------------------------------------
G---------------------------------------------------------
D--------3--------------3---------------------------------
A--------3--------------3---------------------------------
E--------1--------------1---------------------------------

  pisando fuerte pisando fuerte
e----------------------------------------------------------
B----------------------------------------------------------
G----------------------------2/-9--------------------------
D-5--------------------------------------------------------
A-5--------------------------------------------------------
E-3--------------------------------------------------------


SOLO :   (lead guitar)  
e-/14--13h14~~-------12p10h12~~---10-12/14p12h14~~---14-12-----/19~~-
B----------------------------------------------------------15--------
G--------------------------------------------------------------------
D--------------------------------------------------------------------
A--------------------------------------------------------------------
E--------------------------------------------------------------------


e-14-15-17-15~---14----15---14----15~-----------15---------------------
B------------------17---------17-------------------17-15---------------
G---------------------------------------------------------14h16p14~~---
D----------------------------------------------------------------------
A----------------------------------------------------------------------
E----------------------------------------------------------------------

e------------------------------------------------------15---/19-19~~---
B---------------------------12------14-------17------------------------
G------12----14-----16---12-----12-------14----------------------------
D---12----12-----14----------------------------------------------------
A----------------------------------------------------------------------
E----------------------------------------------------------------------

Cambia 1 tono (2° guitarra)

...No oh 
Compartiendo las miradas, con las luces apagadas
e----------------------------------------------------------
B----------------------------------------------------------
G----7-----------------------------------------------------
D----7----------------7-7----9-------------------4---------
A----5----------------7-7----9-------------------4---------
E---------------------5-5----7-------------------2---------

empiezo a sentirme yo mismo a sentirme mas seguro
e---------------------------------------------------------
B---------------------------------------------------------
G---------------------------------------------------------
D--------5--------------5---------------------------------
A--------5--------------5---------------------------------
E--------3--------------3---------------------------------

pisando fuerte, pisando fuerte
e----------------------------------------------------------
B----------------------------------------------------------
G----------------------------4/11~~~-----------------------
D-7--------------------------------------------------------
A-7--------------------------------------------------------
E-5--------------------------------------------------------
(teclado)



 (acompañado de teclado y acordes)
  Es tan bonito esto de soñar, tan violenta la verdad
  que ya no puedo más,     
  pero ya me conoces 						(guitarra acústica)
  y aunque todo se hunda yo seguiré aqui en pie, en pie...	e--3-----5------------
								B--3-----5------------
								G--4-----6------------
								D--5-----7------------
								A--5-----7------------
								E--3-----5------------
       
 
Son tan fuertes tus miradas, elegantes y estudiadas
e----------------------------------------------------------
B----------------------------------------------------------
G----7~----------------------------------------------------
D----7~----------------7-7----9-------------------4--------
A----5~----------------7-7----9-------------------4--------
E----------------------5-5----7-------------------2--------

Yo soy solo un adolescente pero entraré en tu mente
e---------------------------------------------------------
B---------------------------------------------------------
G---------------------------------------------------------
D--------5--------------5---------------------------------
A--------5--------------5---------------------------------
E--------3--------------3---------------------------------

 Pisando fuerte, pisando fuerte 
e----------------------------------------------------------
B----------------------------------------------------------
G----------------------------4/11--------------------------
D-7--------------------------------------------------------
A-7--------------------------------------------------------
E-5--------------------------------------------------------	

Compartiendo las miradas, con las luces apagadas
e----------------------------------------------------------
B----------------------------------------------------------
G----7-----------------------------------------------------
D----7----------------7-7----9-------------------4---------
A----5----------------7-7----9-------------------4---------
E---------------------5-5----7-------------------2---------

empiezo a sentirme yo mismo a sentirme mas seguro
e---------------------------------------------------------
B---------------------------------------------------------
G---------------------------------------------------------
D--------5--------------5---------------------------------
A--------5--------------5---------------------------------
E--------3--------------3---------------------------------

   pisando fuerte, pisando fuerte
e----------------------------------------------------------
B----------------------------------------------------------
G----------------------------4/11--------------------------
D-7--------------------------------------------------------
A-7--------------------------------------------------------
E-5--------------------------------------------------------


2° solo 

e-----------------------------------------------------------
B---10-------------------------------10---------------------
G---------9-9~~---7-9/11~~---7-9/11-------9~----------------
D-----------------------------------------------------------
A-----------------------------------------------------------
E-----------------------------------------------------------

e----------------------------------------------12----------------
B---12-14-14/15---14-15-17----12h14p12-------------12h14p12------
G---------------------------------------14------------------14---
D----------------------------------------------------------------
A----------------------------------------------------------------
E----------------------------------------------------------------



(Esta parte la 1° guitarra y la 2° de fondo con los mismos acordes anteriores)

Son tan fuertes tus miradas, elegantes y estudiadas
e--14-14/17-------------------15-14---------------12--------
B-----------------------------------12-----12-15-----14-----
G-------------------------------------------------------12--
D-----------------------------------------------------------
A-----------------------------------------------------------
E-----------------------------------------------------------
Yo soy solo un adolescente pero entraré en tu mente
e----------------------------------------------------------
B----15--------------------------------12--15--------------
G-14-------------------------------14----------------------
D----------------------------------------------------------
A----------------------------------------------------------
E----------------------------------------------------------

 Pisando fuerte, pisando fuerte 
e------19------19-----17/21-19-----------------------------
B--17------17----------------------------------------------
G----------------------------------------------------------
D----------------------------------------------------------
A----------------------------------------------------------
E----------------------------------------------------------


e-/19-17----17-15-14-----14/15----------14-12--------------------
B-------------------17-----------------------15-------12-10------
G-----------------------------------------------------------14---
D----------------------------------------------------------------
A----------------------------------------------------------------
E----------------------------------------------------------------

Yo soy solo un adolescente pero entraré en tu mente,pisando fuerte pisando fuerte...
e---------------------------10-12-------------------10h12-----------------
B-----15------15-15-15---12--------10h12p10------12---------10h12p10------
G--14-----14---------------------------------12------------------------12-
D-------------------------------------------------------------------------
A-------------------------------------------------------------------------
E-------------------------------------------------------------------------


e---17~~-----17-----16------15-----12----------------------
B---------15-----15-----14------12-------------------------
G------------------------------------11--------------------
D----------------------------------------------------------
A----------------------------------------------------------
E----------------------------------------------------------
(hasta acá llegé a escuchar el mp3)

Saludos a la promociòn 2002 de Medicina Humana UNMSM y a toda la pre San Marcos
		   
AcordesyTabs.com © 2008 Acordes y Tablaturas para guitarra. Tabs and Chords for guitar. Aviso Legal - Contacto
El uso de este sitio está sujeto a la aceptación de los términos y condiciones (23 usuarios online)