tablaturas, partituras y acordes para guitarra
Busca por banda/artista:
 
y/o título de la canción:
A B C D E F G H I J K L M N O P Q R S T U V W X Y Z 0 1 2 3 4 5 6 7 8 9 / Top 100 tabs
Categorías
Usuarios
usuario:
Darse de alta
password:
Artistas más visitados
Publicidad
TOP acordes y tablaturas de Almafuerte


Estás en: Inicio > Letra A > Acordes y tablaturas de Almafuerte > Voy a enloquecer
Voy a enloquecer
de Almafuerte
Puntúa este acorde/tab:      
(0.3/5)
Reportar este acorde/tab
  Añadir a tus favoritos
  Imprimir
Intro:
e|-----------------|-----------------|-----------------|---|
B|-----------------|-----------------|-----------------|---|
G|---------------5-|-----------------|---------------5-|-2-|
D|---7-7-5---5-7---|---7-7-5---5-7---|---7-7-5---5-7---|-2-|
A|-0-------7-------|-0-------7-----3-|-0-------7-------|-0-|
E|-----------------|-----------------|-----------------|---|

e|----------------------|-------------------|
B|----------------------|-------------------|
G|----------------------|-------------------|
D|---7-7p5---5----------|---7-7p5---5-------|x2
A|-0-------7----7-5p3p0-|-0-------7---7-5-3-|
E|----------------------|-------------------|

e|-----------------------|---------------------|
B|-----------------------|---------------------|
G|-------------------5-7-|-------------------5-|
D|------------5--6-7-----|------------5--6-7---|x2
A|-5-5--8p5-8------------|-5-5--8p5-8----------|
E|-----------------------|---------------------|

e|----------------------|-------------------|
B|----------------------|-------------------|
G|----------------------|-------------------|
D|---7-7p5---5----------|---7-7p5---5-------|x2
A|-0-------7----7-5p3p0-|-0-------7---7-5-3-|
E|----------------------|-------------------|

D5
Estoy muy cansado,ya no se que hacer.
Me anda pareciendo que he de enloquecer.
E5 D5 E5
Todo sigue igual, o peor que ayer.
D5
Nunca paro de correr.
E5
Ya no se quien soy. Ya no se que hacer. 
D5
Solamente entiendo que
C5 B5 C5 B5
el tiempo se va de mi, y se acaba infeliz.
C5 D5 E5
Con este ardor, no quiero seguir.
No quiero seguir.

e|----------------------|-------------------|
B|----------------------|-------------------|
G|----------------------|-------------------|
D|---7-7p5---5----------|---7-7p5---5-------|
A|-0-------7----7-5p3p0-|-0-------7---7-5-3-|
E|----------------------|-------------------|

F5 G5

A5
Voy a enloquecer.
Voy a enloquecer.
Voy a enloquecer.
		   
AcordesyTabs.com © 2008 Acordes y Tablaturas para guitarra. Tabs and Chords for guitar. Aviso Legal - Contacto
El uso de este sitio está sujeto a la aceptación de los términos y condiciones (28 usuarios online)