tablaturas, partituras y acordes para guitarra
Busca por banda/artista:
 
y/o título de la canción:
A B C D E F G H I J K L M N O P Q R S T U V W X Y Z 0 1 2 3 4 5 6 7 8 9 / Top 100 tabs
Categorías
Usuarios
usuario:
Darse de alta
password:
Artistas más visitados
Publicidad
TOP acordes y tablaturas de Attaque 77


Estás en: Inicio > Letra A > Acordes y tablaturas de Attaque 77 > Vuelve a casa
Vuelve a casa
de Attaque 77
Puntúa este acorde/tab:      
(0.9/5)
Reportar este acorde/tab
  Añadir a tus favoritos
  Imprimir
Intro: 

(1)
  A      E     D      E
e|------|-----|------|------
B|------|-----|------|------
G|--9-6-|--9-6|---7--|---9-6
D|7-----|6----|-----9|-6----
A|------|-----|-9----|------
E|------|-----|------|------

(2)
  A             E          D           E
e|------12-9-12|----9-12-9|----7-10-7-|----
B|10-10--------|9-9-------|7-7--------|9---
B|-------------|----------|-----------|----
D|-------------|----------|-----------|----
A|-------------|----------|-----------|----
E|-------------|----------|-----------|----

Al final de la cancion dice:

          A   F#m           D     E
Vuelve a casa,    vuelve a casa,
          A   F#m           D     E
Vuelve a casa,    vuelve a casa
         (1)
Vuelve a casa
         (2)
Vuelve a casa
         (2)
Vuelve a casa
         (2)
Vuelve a casa.


AGUANTE A77AQUE Y EL PUNK ROCK!!!!!!!
		   
AcordesyTabs.com © 2008 Acordes y Tablaturas para guitarra. Tabs and Chords for guitar. Aviso Legal - Contacto
El uso de este sitio está sujeto a la aceptación de los términos y condiciones (28 usuarios online)