tablaturas, partituras y acordes para guitarra
Busca por banda/artista:
 
y/o título de la canción:
A B C D E F G H I J K L M N O P Q R S T U V W X Y Z 0 1 2 3 4 5 6 7 8 9 / Top 100 tabs
Categorías
Usuarios
usuario:
Darse de alta
password:
Artistas más visitados
Publicidad
TOP acordes y tablaturas de Fiel a la Vega


Wanabi
de Fiel a la Vega
Puntúa este acorde/tab:      
(0.4/5)
Reportar este acorde/tab
  Añadir a tus favoritos
  Imprimir
Este es el solo de Wanabi:
-----------------------------------------------------

e--6--6--6--4--3--4--4/3-----------------------------
B--6----------------------4--------------------------
G----------------------------3--1--3--3/5--5--5--5---
D----------------------------------------------------
A----------------------------------------------------
E----------------------------------------------------

e----------------------------------------------------
B--------------------4--------------------6--8--8h9--
G--3--1--3--1--0--3-----3--------------8-------------
D--------------------------5--6--5--6----------------
A----------------------------------------------------
E----------------------------------------------------

e--------------8--6-----------8--6--9--8--6----------
B--8-----6--9--------9--8--9-----------------9-------
G-----7--------------------------------------------6-
D-----------------------------------------------6----
A----------------------------------------------------
E----------------------------------------------------

e--------------------------------------------------6-
B--------------------9--8--6-----9--8--6--9--8-------
G--5-----------5--8-----------8-----------------8----
D-----8--6--8----------------------------------------
A----------------------------------------------------
E----------------------------------------------------

e----------------------------------------------------
B--9-------------------------------------------------
G-----8----------------------------------------------
D--------8-------------------------------------------
A----------------------------------------------------
E----------------------------------------------------


Creo que hay algunos errores, algunas notas en vez
de ser punteos se tocan al mismo tiempo con alguna
otra nota. Seria la voz si alguien pudiera intentar
corregir esta transcripcion.

EL PISCO ES PERUANO!

esto es para mi tio y mis patas, victor, alexis,
alejandro, fernando s, fernando r, mauricio, bern,
pau, guillermo, abel, y todos los demas, sorry si me 
olvide de mencionarlos... saludos a todos.
		   
AcordesyTabs.com © 2008 Acordes y Tablaturas para guitarra. Tabs and Chords for guitar. Aviso Legal - Contacto
El uso de este sitio está sujeto a la aceptación de los términos y condiciones (14 usuarios online)