tablaturas, partituras y acordes para guitarra
Busca por banda/artista:
 
y/o título de la canción:
A B C D E F G H I J K L M N O P Q R S T U V W X Y Z 0 1 2 3 4 5 6 7 8 9 / Top 100 tabs
Categorías
Usuarios
usuario:
Darse de alta
password:
Artistas más visitados
Publicidad
TOP acordes y tablaturas de Alice in chains


Brother
de Alice in chains
Puntúa este acorde/tab:      
(0.7/5)
Reportar este acorde/tab
  Añadir a tus favoritos
  Imprimir


Subject: a/alice_in_chains/brother.tab

From the album "Sap" by Alice In Chains, here is the first track.  Both
individual tunes and the complete album will be posted, the only difference
being the sizes (individual tunes posted for users with small accounts).  
Good luck and have fun.  Any questions/comments/praises?  Email me at:
stevem@imap1.asu.edu.  Thanks.
 
 
 
 
                                Brother
                                -------
 
 
                            by Alice in Chains
 
                     
 
 
 
 
A few notes about this song.  You MUST drop your guitar into a flat E 
tuning (one-half step down on each string).  As well, listen to the album
for exact timing.
 
 
 
 
Intro
 
 
-0----0---0-0--0---0--0---0-0--|---0--0--0--0-------------------------------
-2----2---2-2--2---2--2---2-2--|---2--2--2--2--3-/-5--3--2------------------
-2----2---2-2--2---2--2---2-2--|---2--2--2--2--0-/-0--0--2------------------
-2----2---2-2--2---2--2---2-2--|---2--2--2--2--3-/-5--3--2------------------
-0----0---0-0--0---0--0---0-0--|---0--0--0--0--0-/-0--0--0------------------
-------------------------------|--------------------------------------------
 
 
Repeat Intro 4 times and play Intro.2 along with Intro after 4th measure
 
 
 
Intro.2 
 
 
------------------------|---------------------------------------------------
----5^(1/2)-------------|-----5^(1/2)-----------8^(1/2)---------------------
--------------6^(1/2)---|--------------6^(1/2)------------------------------
------------------------|---------------------------------------------------
------------------------|---------------------------------------------------
------------------------|---------------------------------------------------
 
 
Repeat Intro along with Intro.2 until CHORUS
 
 
 
 
Chorus
------
 
 
Chord Progression       
 
 
F  F  F F  F  F F  F  F F F F F F  A  Asus4 Asus4 Asus4  Asus4  Asus4
 
A A  A  A  Asus4 Asus4  Asus4 Asus4 Asus4  A A  A A A A  F F F  F F
 
F F  F  F F  F F  F F F  G5  G5 G5 G5  G5 G5 G5 G5
 
 
 
Return to Verses or Solo
 
 
 
 
Solo
----
 
 
                                                |--hold bend-----|
 
     ~~~~~                             ~~~~                               ~~~
-------------------------------|---------------------5---5-|--5--------------
-------------------------------|-------------------5---5---|-----5-8^(1)-8---
----------------5--7-7^(1/2)r--|--5---5-----7^(1)----------|-----------------
--5h7-------5h7----------------|----7----------------------|-----------------
-------------------------------|---------------------------|-----------------
-------------------------------|---------------------------|-----------------
                                                           
 
 
                                                              |--hold bend-|
                                                ~~~
----------------------------------------------------|------------------------
-7--5--7^(1/2)--5-------------------5^(1/4)---------|------------------------
------------------7--5-7^(1/2)r-5---5^(1/4)---------|------------------------
----------------------------------7----------5h7----|------------------------
----------------------------------------------------|--5--3^(1)------3---3---
----------------------------------------------------|------------------------
 
 
 
                             ~~~~~~~                ~~~~
---------------------------------------------------------|-------------------
---------------------------------------------------------|-7^(1/2)-----------
--------------------5-7^(1)r--------7^(1/2)r--5----5-----|-7^(1)-------------
--------------5--7------------------------------7--------|-------------------
----------5h7--------------------------------------------|-------------------
--5--3--5------------------------------------------------|-------------------
 
 
 
                                                     ~~~~~~~        ~~~~~~~~~
-------------------------------------------------------------|---------------
-7^(1/2)r---------------7^(1/2)-7^(1/2)r---------------------|---------------
-7^(1)-----7^(1)r--5----7^(1)---7^(1)r-----7^(1)r-5----------|---------------
---------------------7------------------------------7--------|--5--7---------
-------------------------------------------------------------|---------------
-------------------------------------------------------------|---------------
 
 
                                               ~~~~~~
--------5---8^(1)r---(8)--8--5--------------------|--------------------------
--------5----------------------8^(1)r----7h8--7---|5-------------------------
-----5--------------------------------------------|--7^(1/2)-7-5-----5-7^(1/2)
-5h7----------------------------------------------|--------------5h7---------
--------------------------------------------------|--------------------------
--------------------------------------------------|--------------------------
 
 
End solo...
 
Repeat Intro until end of song
 



"BROTHER"
-------------------------------
 ALICE IN CHAINS (From the album: "SAP")
----------------------------------------------
 By Eyal Babich
------------------
	
E-MAIL - danielt@mail.save-net.co.il

      This is the UNPLUGGED version for Alice In Chains "Brother".
      I don't think there's any diffrence between this and an Electric Guitar,
      and it's not the whole song either, but hell, here it goes:
             A7
     E   |---0-0-0-0-0-0-0-0-0-0-0--|--0/0/0/0-------------|
     B   |---2-2-2-2-2-2-2-2-2-2-2--|--3/4/3/2-------------|
     G   |---0-0-0-0-0-0-0-0-0-0-0--|--0/0/0/0-------------| X2 (repeat this
     D   |---2-2-2-2-2-2-2-2-2-2-2--|--------2-------------|	 2 more times)
     A   |---------------0---0------|----------------------|
     E   |---------------0---0------|----------------------|

	 Now it's the part when Layne goes: Mmm...mmm..Hmm....
	 This part,(under this line) is played while the: "Mmm...mmm......"
         
	 |----------------------|-------------------------------------------|
	 |----------------------|-------------------------------------------|
	 |----------------------|-------------------------------------------|
	 |(0)-------------------|---5h7-5-------------|-5h7-5------7h9-7----|
	 |(2)----0-3-5-6h7--8---|--------5h7-5--------|-----5h7-5-----------|
	 |(0)----0--------------|-------------5h7-5---|---------------------|
	         |___________|________________________|	 
		  (this part comes also after the --5h7-5--...)
				
	There might be a few mistakes, I got this from my memory.
	(wich means that it's totaly wrong.......)

	If you wanna play this correctly, your gonna have to listen
	the CD for timing and stuff....



		   
AcordesyTabs.com © 2008 Acordes y Tablaturas para guitarra. Tabs and Chords for guitar. Aviso Legal - Contacto
El uso de este sitio está sujeto a la aceptación de los términos y condiciones (23 usuarios online)