tablaturas, partituras y acordes para guitarra
Busca por banda/artista:
 
y/o título de la canción:
A B C D E F G H I J K L M N O P Q R S T U V W X Y Z 0 1 2 3 4 5 6 7 8 9 / Top 100 tabs
Categorías
Usuarios
usuario:
Darse de alta
password:
Artistas más visitados
Publicidad
TOP acordes y tablaturas de Joaquín Sabina


Estás en: Inicio > Letra J > Acordes y tablaturas de Joaquín Sabina > Por el boulevard de los sueños rotos
Por el boulevard de los sueños rotos
de Joaquín Sabina
Puntúa este acorde/tab:      
(0.4/5)
Reportar este acorde/tab
  Añadir a tus favoritos
  Imprimir
Joaquín Sabina
Por El Boulevard De Los Sueños Rotos

Intro:
                                                                  E
E||--0-0--0---------------0-0--0---------------0-0--0--------------0--||
B||--5h7----4-5---4-5-4---5h7----4-5---4-5-4---5h7----4-5---4h5----0--||
G||----------------------------------------------------------------1--||
D||----------------------------------------------------------------2--||
A||----------------------------------------------------------------2--||
e||----------------------------------------------------------------0--||

2° parte de la intro:
Riff I

    E                                A                 B
E||----------------------------------------------------------------------||
B||--7h9-5-7--5-7-5--7h9-5-7--5-7-5---7h9-9-7---5-7-5---7h9-9-7---5h7-5--||
G||----------------------------------------------------------------------||
D||----------------------------------------------------------------------||
A||----------------------------------------------------------------------||
e||----------------------------------------------------------------------||

E                             B               A                  E
En el bulevar de los sueños rotos, vive una dama de poncho rojo,
                             B                A                 E
pelo de plata y carne morena, mestiza ardiente de lengua libre,
              B               A              E                 Riff I
Gata valiente de piel de tigre, con voz de rayo de luna llena.
E                               B              A                  E
Por el bulevar de los sueños rotos, pasan de largo los terremotos,
                           B                A                     E
y hay un tequila por cada duda cuando Agustín se sienta al piano,
            B             A         E                 Riff I
Diego Rivera lápiz en mano dibuja Frida Kahlo desnuda.

   Bm              F#
Se escapo de una cárcel de amor,
      G#                      A              B
de un delirio de alcohol de mil noches en vela,
   F#                   G#            A          B
Se dejo el corazón en Madrid quien supiera reír,
                   Riff I
Como llora Chavela.

Por el bulevar de los sueños rotos, desconsolados van los devotos,
de San Antonio pidiendo besos, ponme la mano aquí macolina,
Rezan los fieles por las cantinas, Paloma negra de los excesos.
A                               B                   E               A
Por el bulevar de los sueños rotos, moja una lagrima antiguas fotos,
                             B               E                A
y una canción se burla del miedo las amarguras no son amargas,
                              B                           E
Cuando las canta Chavela Vargas y las escribe un tal José Alfredo.

   Bm              F#
Se escapo de una cárcel de amor,
      G#                      A              B
de un delirio de alcohol de mil noches en vela,
   F#                   G#            A          B
Se dejo el corazón en Madrid quien supiera reír,
                   Riff I
Como llora Chavela.

Solo de Guitarra.

E                        B                              A
Las amarguras no son amargas cuando las canta Chavela Vargas,
          E
y las escribe un tal José Alfredo.

Se escapo de una cárcel de amor,
de un delirio de alcohol de mil noches en vela,
Se dejo el corazón en Madrid quien supiera reír,
Como llora Chavela.

E            B                E
Por el bulevar de los sueños rotos.
		   
AcordesyTabs.com © 2008 Acordes y Tablaturas para guitarra. Tabs and Chords for guitar. Aviso Legal - Contacto
El uso de este sitio está sujeto a la aceptación de los términos y condiciones (27 usuarios online)