tablaturas, partituras y acordes para guitarra
Busca por banda/artista:
 
y/o título de la canción:
A B C D E F G H I J K L M N O P Q R S T U V W X Y Z 0 1 2 3 4 5 6 7 8 9 / Top 100 tabs
Categorías
Usuarios
usuario:
Darse de alta
password:
Artistas más visitados
Publicidad
TOP acordes y tablaturas de Peor Es Nada


Estás en: Inicio > Letra P > Acordes y tablaturas de Peor Es Nada > Ya es muy tarde
Ya es muy tarde
de Peor Es Nada
Puntúa este acorde/tab:      
(0.4/5)
Reportar este acorde/tab
  Añadir a tus favoritos
  Imprimir
***Repetir las notas las veces que sea necesario***

*= Palm mute

'Cuantas veces...'

E-----------------------------------|---------------------|
B-----------------------------------|---------------------|
G------11---9---7-----9--11--13--11-|------11---9---7---9-|
D-7----11---9---7-----9--11--13--11-|-7----11---9---7---9-|
A-7----9----7---5-----7--9---11--9--|-7----9----7---5---7-|
E-5---------------------------------|-5-------------------|
                                    |                     |
E-----------------------------------|---------------------|
B-----------------------------------|---------------------|
G------11---9---7-----9-------------|------11---9---7---9-|
D-7----11---9---7-----9-------------|-7----11---9---7---9-|
A-7----9----7---5-----7-------------|-7----9----7---5---7-|
E-5---------------------------------|-5-------------------|

'Déjame decir por última vez...'

E-------------------|---------------------------------|
B-------------------|---------------------------------|
G-11---13---14---14-|-11---13---14---14---14---9---14-|
D-11---13---14---14-|-11---13---14---14---14---9---14-|
A-9----11---12---11-|-9----11---12---11---12---7---12-|
E-------------------|---------------------------------|

E-------------------|---------------------------------|
B-------------------|---------------------------------|
G-11---9----7----9--|-11---9----7----7----7----9------|
D-11---9----7----9--|-11---9----7----7----7----9---7--|
A-9----7----5----7--|-9----7----5----4----5----7---7--|
E-------------------|------------------------------5--|

'Nunca tuve las fuerzas...'

E-----------------------------------|---------------------|
B-----------------------------------|---------------------|
G------11---9---7-----9--11--13--11-|------11---9---7---9-|
D-7----11---9---7-----9--11--13--11-|-7----11---9---7---9-|
A-7----9----7---5-----7--9---11--9--|-7----9----7---5---7-|
E-5---------------------------------|-5-------------------|
                                    |                     |
E-----------------------------------|---------------------|
B-----------------------------------|---------------------|
G------11---9---7-----9-------------|------11---9---7---9-|
D-7----11---9---7-----9-------------|-7----11---9---7---9-|
A-7----9----7---5-----7-------------|-7----9----7---5---7-|
E-5---------------------------------|-5-------------------|

'Déjame decir por última vez...'

E-------------------|---------------------------------|
B-------------------|---------------------------------|
G-11---13---14---14-|-11---13---14---14---14---9---14-|
D-11---13---14---14-|-11---13---14---14---14---9---14-|
A-9----11---12---11-|-9----11---12---11---12---7---12-|
E-------------------|---------------------------------|

E-------------------|---------------------------------|
B-------------------|---------------------------------|
G-11---9----7----9--|-11---9----7----7----7----9------|
D-11---9----7----9--|-11---9----7----7----7----9---7--|
A-9----7----5----7--|-9----7----5----4----5----7---7--|
E-------------------|------------------------------5--|

'Sabes que jamás...' (Las dos guitarras iguales)
                                                aqui esta la cantidad de notas
E-----------------|--------------------------|----------------------------|
B-----------------|--------------------------|----------------------------|
G---------------7-|-*---*---*-*---7--6-------|-*-*-*--*-*-*--*-*-*--*-*-*-|
D-7---4---7-2---7-|-7---4---7-2---7--6--7--9-|-7-7-7--6-6-6--7-7-7--6-6-6-|
A-7---4---7-2---5-|-7---4---7-2---5--4--7--9-|-7-7-7--6-6-6--7-7-7--6-6-6-|
E-5---2---5-0-----|-5---2---5-0---------5--7-|-5-5-5--4-4-4--5-5-5--4-4-4-|

E-----------------------------|-----------------------------|----------------------------|
B-----------------------------|-----------------------------|-*-*-*--*-*-*--*-*-*--*-*-*-|
G-*-*-*--*-*-*--*-*-*--*-*-*--|-*-*-*--*-*-*--*-*-*--*-*-*--|-7-7-7--6-6-6--7-7-7--6-6-6-|
D-4-4-4--4-4-4--4-4-4--4-4-4--|-2-2-2--2-2-2--2-2-2--2-2-2--|-7-7-7--6-6-6--7-7-7--6-6-6-|
A-4-4-4--4-4-4--4-4-4--4-4-4--|-2-2-2--2-2-2--2-2-2--2-2-2--|-5-5-5--4-4-4--5-5-5--4-4-4-|
E-2-2-2--2-2-2--2-2-2--2-2-2--|-0-0-0--0-0-0--0-0-0--0-0-0--|----------------------------|

Solo (Todo con Palm mute)

E-----------------------------------------------------------------------------------|
B-----------------------------------------------------------------------------------|
G-7-7-6--6-7-7-7-6--6-7-----9-11-----9-11----9-7-6---9-7-6--7-7-7-------7-7-7-------|
D-----------------------9-9------9-9-------9-------9--------------7-7-7-------7-7-7-|
A-----------------------------------------------------------------------------------|
E-----------------------------------------------------------------------------------|

Segunda guitarra: La Fa# Mi Re (Todos con Palm mute)

Final:

E-----------------------------|  |----------------------------------------|
B-----------------------------|  |----------------------------------------|
G-14---13--16--14---13--9-----|  |-14---13--16--14---13--9---14---13--16--|
D-14---13--16--14---13--9-----|  |-14---13--16--14---13--9---14---13--16--|
A-12---11--14--12---11--7-----|  |-12---11--14--12---11--7---12---11--14--|
E-----------------------------|  |----------------------------------------|
                              |X2|                                        |
E-----------------------------|  |----------------------------------------|
B-----------------------------|  |----------------------------------------|
G-----------------7--6--6-7-9-|  |----------------------------------------|
D-7------------4--7--6--6-7-9-|  |-7------------4------------2------------|
A-7------------4--5--4--4-5-7-|  |-7------------4------------2------------|
E-5------------2--------------|  |-5------------2------------0------------|

E----------------|------------|
B----------------|------------|
G----------------|------------|
D-12--11---------|-7-7-7-7-7--|
A---------12--14-|-7-7-7-7-7--|
E----------------|-5-5-5-5-5--|
                 |            |
E----------------|------------|
B----------------|------------|
G-7---6----------|------------|
D-7---6---7---9--|-7-7-7-7-7--|
A-5---4---7---9--|-7-7-7-7-7--|
E---------5---7--|-5-5-5-5-5--|

Ahi está la canción completa

Me parece que le falta nada
		   
AcordesyTabs.com © 2008 Acordes y Tablaturas para guitarra. Tabs and Chords for guitar. Aviso Legal - Contacto
El uso de este sitio está sujeto a la aceptación de los términos y condiciones (30 usuarios online)