tablaturas, partituras y acordes para guitarra
Busca por banda/artista:
 
y/o título de la canción:
A B C D E F G H I J K L M N O P Q R S T U V W X Y Z 0 1 2 3 4 5 6 7 8 9 / Top 100 tabs
Categorías
Usuarios
usuario:
Darse de alta
password:
Artistas más visitados
Publicidad
TOP acordes y tablaturas de Peor Es Nada


Estás en: Inicio > Letra P > Acordes y tablaturas de Peor Es Nada > Ya es muy tarde
Ya es muy tarde
de Peor Es Nada
Puntúa este acorde/tab:      
(0.4/5)
Reportar este acorde/tab
  Añadir a tus favoritos
  Imprimir
'Cuantas veces...'

G---------------------------------|-----------------------------------| ---
D---------------------------------|-----------------------------------|   |
A---------------------------------|-----------------------------------|   |
E-5-5-5-5-5-5-5-5-5-5-5-5-5-5-5-5-|-2-2-2-2-2-2-2-2--0-0-0-0-0-0-0-0--|   |_
                                                                           _ x2
G---------------------|-----------------------------------------------|   |
D---------------------|-----------------------------------------------|   |
A-5-5-5-5-5-5-5-5-5-5-|-7-7-7-7-7-7-7-7-7-7-7-7-7-7-7-7---------------|   |
E---------------------|-----------------------------------------------| ---

'Déjame decir por última vez...'

G---------------------------|---------------------------|---------------------------|
D---------------------------|---------------------------|---------------------------|
A-9-9-9-9-9-9-9-9-9-9-9-9-9-|-7-7-7-7-7-7-7-7-7-7-7-7-7-|-5-5-5-5-5-5-5-5-5-5-5-5-5-|
E---------------------------|---------------------------|---------------------------|

G---------------------------|--------------------|---------------------------|
D---------------------------|--------------------|---------------------------|
A-7-7-7-7-7-7-7-7-7-7-7-7-7-|-9-9-9-9-9--9-9-9-9-|-7-7-7-7-7-7-7-7-7-7-7-7-7-|
E---------------------------|--------------------|---------------------------|

'Acaso soy tan tonto...'

G--------------------------------------|---------------------------------------|-----|
D--------------------------------------|---------------------------------------|-----|
A-5-5-5-5-5-5-5-5-5--4-4-4-4-4-4-4-4-4-|-5-5-5-5-5-5-5-5-5--7-7-7-7-7-7-7-7-7--|-----|
E--------------------------------------|---------------------------------------|--5--|

'Nunca tuve las fuerzas...'

G---------------------------------|-----------------------------------| ---
D---------------------------------|-----------------------------------|   |
A---------------------------------|-----------------------------------|   |
E-5-5-5-5-5-5-5-5-5-5-5-5-5-5-5-5-|-2-2-2-2-2-2-2-2--0-0-0-0-0-0-0-0--|   |_
                                                                           _ x2
G---------------------|-----------------------------------------------|   |
D---------------------|-----------------------------------------------|   |
A-5-5-5-5-5-5-5-5-5-5-|-7-7-7-7-7-7-7-7-7-7-7-7-7-7-7-7---------------|   |
E---------------------|-----------------------------------------------| ---

'Déjame decir por última vez...'

G---------------------------|---------------------------|---------------------------|
D---------------------------|---------------------------|---------------------------|
A-9-9-9-9-9-9-9-9-9-9-9-9-9-|-7-7-7-7-7-7-7-7-7-7-7-7-7-|-5-5-5-5-5-5-5-5-5-5-5-5-5-|
E---------------------------|---------------------------|---------------------------|

G---------------------------|--------------------|---------------------------|
D---------------------------|--------------------|---------------------------|
A-7-7-7-7-7-7-7-7-7-7-7-7-7-|-9-9-9-9-9--9-9-9-9-|-7-7-7-7-7-7-7-7-7-7-7-7-7-|
E---------------------------|--------------------|---------------------------|

'Acaso soy tan tonto...'

G--------------------------------------|---------------------------------------|
D--------------------------------------|---------------------------------------|
A-5-5-5-5-5-5-5-5-5--4-4-4-4-4-4-4-4-4-|-5-5-5-5-5-5-5-5-5--7-7-7-7-7-7-7-7-7--|
E--------------------------------------|---------------------------------------|

'Sabes que jamás te lo diré...'

G---------------------|----------------------------|----------------------------|
D---------------------|----------------------------|----------------------------|
A------------------5--|----------------------------|----------------------------|
E-5----2----5-0-------|-5-5-5--5-5-5--5-5-5--5-5-5-|-2-2-2--2-2-2--2-2-2--5-5-5-|

G----------------------------|-----------|
D----------------------------|-----------|
A----------------------------|--5-4------|
E-0-0-0--0-0-0--0-0-0--0-0-0-|------5-7--|

G----------------------------|----------------------------|----------------------------|
D----------------------------|----------------------------|----------------------------|
A----------------------------|----------------------------|----------------------------|
E-5-5-5--5-5-5--5-5-5--5-5-5-|-2-2-2--2-2-2--2-2-2--5-5-5-|-0-0-0--0-0-0--0-0-0--0-0-0-|

G----------------------------|---------------------------------|---------------------------------|
D----------------------------|---------------------------------|---------------------------------|
A-5-5-5--4-4-4--5-5-5--4-4-4-|---------------------------------|---------------------------------|
E----------------------------|-5-5-5-5-5-5-5-5-5-5-5-5-5-5-5-5-|-2-2-2-2-2-2-2-2-2-2-2-2-2-2-2-2-|

G---------------------------------|---------------------------------|--------------------|
D---------------------------------|---------------------------------|--------------------|
A---------------------------------|-5-5-5-5-5-5-5-5-5-5-5-5-5-5-5-5-|--------------------|
E-0-0-0-0-0-0-0-0-0-0-0-0-0-0-0-0-|---------------------------------|-5-5--3-3--5-5--3-3-|

G---------------------------------|---------------------------------|
D---------------------------------|---------------------------------|
A---------------------------------|---------------------------------|
E-5-5-5-5-5-5-5-5-5-5-5-5-5-5-5-5-|-2-2-2-2-2-2-2-2-2-2-2-2-2-2-2-2-|

G---------------------------------|---------|-----------|
D---------------------------------|---------|-----------|
A---------------------------------|-5-4-----|-----------|
E-0-0-0-0-0-0-0-0-0-0-0-0-0-0-0-0-|-----5-7-|-5-5-5-5-5-|

Letra:

cuantas veces...dejamos pasar esos momentos como niños...
nunca ivan a acabar..
acaso siempre.. las cosas terminan mal o solo soy yo y mi
estupida forma de actuar
dejame decirte por ultima vez, lo que siento hoy,... dejame
soñar.... y creer que va a funcionar..
acaso soy tan tonto que sabiendo lo que va a pasar me entrego
para luego ir a llorar....
nunca tube las fuerzas para decirtelo y aquellas noches en que
nos dejabamos llevar...
era muy tarde.. tubimos que parar, acaso siempre las cosas
terminan mal!?
dejame decirte por ultima vez.. lo que siento hoy....
dejame soñar, y creer que va a funcionar... acaso soy tan
tonto que sabiendo lo que va a pasar me entrego para luego ir
a llorar...
sabes que jamas te lo dire..
pero esta cancion es para ti...
yo no tengo el valor aun..
debe ser por tus ojos tan lindos!!!!!!

Listo!!!!!
		   
AcordesyTabs.com © 2008 Acordes y Tablaturas para guitarra. Tabs and Chords for guitar. Aviso Legal - Contacto
El uso de este sitio está sujeto a la aceptación de los términos y condiciones (26 usuarios online)