tablaturas, partituras y acordes para guitarra
Busca por banda/artista:
 
y/o título de la canción:
A B C D E F G H I J K L M N O P Q R S T U V W X Y Z 0 1 2 3 4 5 6 7 8 9 / Top 100 tabs
Categorías
Usuarios
usuario:
Darse de alta
password:
Artistas más visitados
Publicidad
TOP acordes y tablaturas de los Panchos


Estás en: Inicio > Letra l > Acordes y tablaturas de los Panchos > Ya es muy tarde
Ya es muy tarde
de los Panchos
Puntúa este acorde/tab:      
(0.5/5)
Reportar este acorde/tab
  Añadir a tus favoritos
  Imprimir
Introduccíón:

|--------0-1-1-1--1-1-0-0-0---0-0--------------------------|
|--0-1-3---------3-3-3-------1-1-1-3-3-3--0-3-0-3-0--1-1-1-|
|-2--------------------------------------------------------|
|----------------------------------------------------------|
|----------------------------------------------------------|
|----------------------------------------------------------|

|--------0-1-1-1--0-0-0---------------------0-1-0---------|
|--0-1-3----3-3-3--1-1-1-3-0-3-0-3-0-1------------3-1-0---|
|-2-----------------------------------------------------2-|
|---------------------------------------------------------|
|---------------------------------------------------------|
|---------------------------------------------------------|


           Am 
Ya es muy tarde 

para remediar
                 E7
todo lo que ha pasado.


Ya es muy tarde

para revivir
                Am
nuestro viejo querer.


     A7
Preferible para ti
                 Dm
que olvides el pasado
           Am
ya es muy tarde
                 B7
si tratas de volver
    E7        Am
resignate a perder.

    G                    C
En muchas ocasiones te busqué
          E7                  Am
y a tus plantas de rodillas imploré
         A7
ya no insistas en reunir
                Dm
tu vida con la mía.

                               Am
Ya es muy tarde si tratas de volver
   B7         E7
resignate a perder.
            Am  
Ya es muy tarde
                 B7
si tratas de volver
   B7         E7
resignate a perder.
 

Dedicada a mi abuelito, el es con quien la toco.
		   
AcordesyTabs.com © 2008 Acordes y Tablaturas para guitarra. Tabs and Chords for guitar. Aviso Legal - Contacto
El uso de este sitio está sujeto a la aceptación de los términos y condiciones (35 usuarios online)