tablaturas, partituras y acordes para guitarra
Busca por banda/artista:
 
y/o título de la canción:
A B C D E F G H I J K L M N O P Q R S T U V W X Y Z 0 1 2 3 4 5 6 7 8 9 / Top 100 tabs
Categorías
Usuarios
usuario:
Darse de alta
password:
Artistas más visitados
Publicidad
TOP acordes y tablaturas de Facundo Toro


Estás en: Inicio > Letra F > Acordes y tablaturas de Facundo Toro > Por la frontera
Por la frontera
de Facundo Toro
Puntúa este acorde/tab:      
(1.1/5)
Reportar este acorde/tab
  Añadir a tus favoritos
  Imprimir



  1 -----------------------2-3-5-2-3-5---3-2-3-5-3-2-----2---------------------
  2 -----------------2-3-5---------------------------5-5---3-5-2-3---2---------
  3 -------2-----2-4-----------------------------------------------4---2-4-----
  4 -2-4-5---5-5-----------------------------------------------------------4-5-


  1 -----------------7-9-10-12-14-15-17-14-15-17-15-14-15-17-15-14-12-12-14-10-
  2 ---7-8-10-8-8-10-----------------------------------------------------------
  3 -9-------------------------------------------------------------------------

  1 --10-12-9-10-7-9----7-------------------------------------------------------
  2 -----------------10---7-8------------------------------------------------------
		   
AcordesyTabs.com © 2008 Acordes y Tablaturas para guitarra. Tabs and Chords for guitar. Aviso Legal - Contacto
El uso de este sitio está sujeto a la aceptación de los términos y condiciones (19 usuarios online)