tablaturas, partituras y acordes para guitarra
Busca por banda/artista:
 
y/o título de la canción:
A B C D E F G H I J K L M N O P Q R S T U V W X Y Z 0 1 2 3 4 5 6 7 8 9 / Top 100 tabs
Categorías
Usuarios
usuario:
Darse de alta
password:
Artistas más visitados
Publicidad
TOP acordes y tablaturas de Guns n roses


Estás en: Inicio > Letra G > Acordes y tablaturas de Guns n roses > Sweet child o mine solo
Sweet child o mine solo
de Guns n roses
Puntúa este acorde/tab:      
(0.3/5)
Reportar este acorde/tab
  Añadir a tus favoritos
  Imprimir

This is my first tab but this is the killer solo that Slash pulls and I'm sure this is accurate


-17b 15 14 15 12 15 14 15 12  12 14---------------------------------------------------------------------
-----------------------------------15 12-----------------------------------
----------------------------------------14 12s 11s 12-------11 12 14-----------------------
-----------------------------------------------------14---14--------------
----------------------------------------------------------------------
----------------------------------------------------------------------

-----------------------19 18-----------------------------------------------
-14b 13 12 11 13 12 10-------7--------7------------------------------------------------------
-------------------------------10s9v9v--10s9v9v--8 9 11 9----------9v-------------------------
-----------------------------------------------------------9 7 9-9----------
----------------------------------------------------------------------
----------------------------------------------------------------------

---------------------------78711 7811-1214 11 12 1415 1214 1514 12------------------------------------------
-8 9 8---------------7--710----------------------------------------15------------
-------9 8 11 11--989-9------------------------------------------------------------
----------------------------------------------------------------------
----------------------------------------------------------------------
----------------------------------------------------------------------

high e string
-1411 121412----------------------------------------------------------
------------15--------

thats all i know so far but when i figure out the rest ill put it on

		   
AcordesyTabs.com © 2008 Acordes y Tablaturas para guitarra. Tabs and Chords for guitar. Aviso Legal - Contacto
El uso de este sitio está sujeto a la aceptación de los términos y condiciones (31 usuarios online)