tablaturas, partituras y acordes para guitarra
Busca por banda/artista:
 
y/o título de la canción:
A B C D E F G H I J K L M N O P Q R S T U V W X Y Z 0 1 2 3 4 5 6 7 8 9 / Top 100 tabs
Categorías
Usuarios
usuario:
Darse de alta
password:
Artistas más visitados
Publicidad
TOP acordes y tablaturas de Silvio Rodriguez


Ya no te espero
de Silvio Rodriguez
Puntúa este acorde/tab:      
(0.7/5)
Reportar este acorde/tab
  Añadir a tus favoritos
  Imprimir
               G/B                   A                        D/F#         
E---------------------0|---------------------|----------------------------|
B------------------3--3|----------------0H2--|----------------------3-----|
G-----2---2---0---0-0--|-------------------2-|--------------------2---2---|
D---0---4---0----------|------0---0---2-----2|--0---0---0---0---0-------0-|
A-4-------------2------|----4---2---0--------|4---2---0-------------------|
E----------------------|0H3------------------|------------3---2-----------|

    A                D 
E--------------0---|-2---2---|
B--------0H2/3---3-|-3---3---|
G------2-----------|---2---2-|
D----2-------------|-0-------|
A--0---------------|---------|
E------------------|---------|

                                     A                        D/F#        
E----------------------|---------------------|----------------------------|
B----------------------|----------------0H2--|----------------------3-----|
G-----2---2---0--------|-------------------2-|--------------------2---2---|
D---0---4---0---2-~~~--|------0---0---2-----2|--0---0---0---0---0-------0-|
A-4--------------------|----4---2---0--------|4---2---0-------------------|
E----------------------|0H3------------------|------------3---2-----------|

    A                D 
E--------------0---|-2---2---|----------------|
B--------0H2/3---3-|-3---3---|----------------|
G------2-----------|---2---2-|----2---2---0---|
D----2-------------|-0-------|--0---4---0---2-|
A--0---------------|---------|4---------------|
E------------------|---------|----------------|

  A7/A#    C7/C#*                 A7/A#    C7/C#*
E-----0-/-0---5--3---2---0-----------0-/-0---5--3---2---0-----|
B-----2-/-5---5--3---3---3---3-------2-/-5---5--3---3---3---3-|
G---0-------0-------0---0---0-------0-------0-------0---0---0---|
D---------------------------------------------------------------|
A-1-------4---4---2---2---------21-------4---4---2---2---------|
E---------------------------------------------------------------|

      G9    D    G/B               A*         A        D
E---------0-2---0-------0|-2---3---5---5---|--0---0----2---2--|------------------||
B--------3--3--3--3---3--|-3---3---5---5---|--2---2----3---3--|------------------||
G-------0---2-0-----0----|---0---0-6-6---0-|----2---2--2-2---2|-----2---2---0----||
D-----------0------------|-----------------|-----------0------|---0---4---0------||
A-2-0-------------2------|-2---2-----------|--0---------------|-4----------------||
E-----3------------------|---------5-------|------------------|---------------3--||
		   
AcordesyTabs.com © 2008 Acordes y Tablaturas para guitarra. Tabs and Chords for guitar. Aviso Legal - Contacto
El uso de este sitio está sujeto a la aceptación de los términos y condiciones (40 usuarios online)