tablaturas, partituras y acordes para guitarra
Busca por banda/artista:
 
y/o título de la canción:
A B C D E F G H I J K L M N O P Q R S T U V W X Y Z 0 1 2 3 4 5 6 7 8 9 / Top 100 tabs
Categorías
Usuarios
usuario:
Darse de alta
password:
Artistas más visitados
Publicidad
TOP acordes y tablaturas de Attaque 77


Ya sé
de Attaque 77
Puntúa este acorde/tab:      
(0.5/5)
Reportar este acorde/tab
  Añadir a tus favoritos
  Imprimir
Versos

G----------------------------------------------
D----------------------------------------------
A----------------------------------------------
E-5-5-5-5-5-5-5-5-5-5-5---4-4-4-4-4-4-4-4-4-4-4

Enganche entre versos (esto lo hace algunas veces)

G----------------------------------------------
D----------------------------------------------
A-----------0-1-2------------------------------
E-5-5-5-5-5-------4-4-4-4-4-4-4-4-4------------

Estribillo

"me voy......"

G----------------------------------------------
D----------------------------------------------
A--------3--3-3-3-2-0--------5--5-5-7--7-7-----
E-2--2-2--------------2--2-2-------------------
		   
AcordesyTabs.com © 2008 Acordes y Tablaturas para guitarra. Tabs and Chords for guitar. Aviso Legal - Contacto
El uso de este sitio está sujeto a la aceptación de los términos y condiciones (30 usuarios online)