tablaturas, partituras y acordes para guitarra
Busca por banda/artista:
 
y/o título de la canción:
A B C D E F G H I J K L M N O P Q R S T U V W X Y Z 0 1 2 3 4 5 6 7 8 9 / Top 100 tabs
Categorías
Usuarios
usuario:
Darse de alta
password:
Artistas más visitados
Publicidad
TOP acordes y tablaturas de Pastilla


Estás en: Inicio > Letra P > Acordes y tablaturas de Pastilla > Por Qué Quieres Poder
Por Qué Quieres Poder
de Pastilla
Puntúa este acorde/tab:      
(0.8/5)
Reportar este acorde/tab
  Añadir a tus favoritos
  Imprimir
intro:


          -fig.1-
     C   G   F   G
e|--------------------|
b|--------------------|
g|--------------------|
d|---5----------------|
a|---3---5---3---5----|
e|-------3---1---3----|
   -esto va con mutings-


e|----------------------------------------------|
b|--5--6-5-6-5----3-5--5--10-8-10-8--6-5-3------|
g|--------------5--------------------------(5)--|  (x2)
d|----------------------------------------------|
a|----------------------------------------------|
e|----------------------------------------------|
   -este es el teclado del inicio-
   -el paréntesis se toca en la segunda vuelta-


          -fig.2-
     C   F         G
e|--------------------------|
b|--------------------------|
g|---5---7/12/10---12--14---|
d|---x---x/xx/x----xx--xx---|
a|---3---5/10/8----10--12---|
e|--------------------------|

e|------------------------|
b|------------------------|
g|---5---7/12/10---9--7---|
d|---x---x/xx/x----x--x---|
a|---3---5/10/8----7--5---|
e|------------------------|


(fig.1)
busque tu amor y al resbalarme
me sorprendí ahí te encontré

(fig.2)

(fig.1)
quise saber por que volviste
y tal vez fui yo quien te hable

(fig.2)

C   Am    G      C     F     G
dime quien eres tú

C        Am  G     C     Am   G
¿por qué me quieres llevar a mi?
C    Am    G     C    F    G
dime quien eres tú
C       Am   G        C    F   G
¿por qué tienes tanto poder?


e|--------------------------------------|
b|--------------------------------------|
g|--------------------------------------|
d|---0-------------------------------10-|
a|-3---3-3-5-3-5-7-10---10/12-10-12-----|
e|--------------------------------------|

e|----------------------------------------|
b|----------------------------------------|
g|----------------------------------------|
d|-------10----10-12-12b-12b-12r--8-8-8-7-|
a|-10-12----12----------------------------|
e|----------------------------------------|

e|---------------------------------------------|
b|---------------------------------------------|
g|-------12-------12-14b-12---(------12------)-|
d|-12-14----12-14-------------(12-14----14-12)-|
a|---------------------------------------------|
e|---------------------------------------------|

e|---------------------------------------------------|
b|----------------13------13------13------13------13-|
g|-9-12-14---12h14---12h14---12h14---12h14---12h14---|
d|---------------------------------------------------|
a|---------------------------------------------------|
e|---------------------------------------------------|

e|----------------|
b|-15-15b-15r-13~-|
g|----------------|
d|----------------|
a|----------------|
e|----------------|
   -las “b” significan jalar la cuerda para arriba-
   -las “r” significan devolver la cuerda a su posición-
   -lo del paréntesis es una figura muy rápida-


          -fig.3-
     C   Am  G
e|---0---0---3----|
b|---1---1---0----|
g|---0---2---0----|
d|---2---2---0----|
a|---3---0---2----|
e|---3-------3----|

     C   Am  G
e|---8---5---3----|
b|---8---5---3----|
g|---9---5---4----|
d|---10--7---5----|
a|---10--7---5----|
e|---8---5---3----|

(fig.3)
dime quien eres tú
¿por qué tienes tanto poder?

(fig.2) (x2)

(fig.2)
no, no, me lleves a mi
no, no, me lleves a mi

(fig.2)
no, no, me lleves a mi
no, no, me lleves a mi


   -termina en C y con ruido de teclados y de guitarra-
		   
AcordesyTabs.com © 2008 Acordes y Tablaturas para guitarra. Tabs and Chords for guitar. Aviso Legal - Contacto
El uso de este sitio está sujeto a la aceptación de los términos y condiciones (27 usuarios online)