tablaturas, partituras y acordes para guitarra
Busca por banda/artista:
 
y/o título de la canción:
A B C D E F G H I J K L M N O P Q R S T U V W X Y Z 0 1 2 3 4 5 6 7 8 9 / Top 100 tabs
Categorías
Usuarios
usuario:
Darse de alta
password:
Artistas más visitados
Publicidad
TOP acordes y tablaturas de Attaque 77


Estás en: Inicio > Letra A > Acordes y tablaturas de Attaque 77 > Por que te vas
Por que te vas
de Attaque 77
Puntúa este acorde/tab:      
(0.5/5)
Reportar este acorde/tab
  Añadir a tus favoritos
  Imprimir
Intro
-----

e|-0---11111---| X4
B|-------------|
G|-------------|
D|-------------|
A|-------------|
E|-------------|

e|-0---11111---| X4
B|-3---33333---|
G|-2---22222---|
D|-------------|
A|-------------|
E|-------------|

e|-1-1-1---|
B|-3-3-3---|
G|-2-2-2---|
D|---------|
A|---------|
E|---------|

Verso 1
-------

   Dm  Gm   A
e|-1----3------|
B|-3----3---3--|
G|-2----3---3--|
D|------5---3--|
A|------5------|
E|------3------|

Dm                           Gm
Hoy en mi ventana brilla el sol
        Dm
mi corazón

Riff1           
e|----------------1--1p0h1------------| 
B|-------------3----------------------|
G|----------3-------------------------|
D|-------5----------------------------|
A|-------5----------------------------|
E|-------3----------------------------|
                        
se pone triste contemplando la ciudad
A            Dm
por que te vas

Verso 2
-------

Igual Que Verso 1
al final del verso 2 sale algo como

Parte que sale antes del coro
Riff2
e|--------------| X2
B|--3--3h6p3-3-3|
G|--------------|
D|--------------|
A|--------------|
E|--------------|

Choro 
-----

El Choro es facil..
La unica joda es pasar rapido de Re Menor(Dm) a Sol(C)
para la transicion.

   Bb   F   C
e|-1----1------|
B|-3----1---1--|
G|-3----2------|
D|-3----3---2--|
A|-1----3---3--|
E|-1----1------|

  Bb                                       Dm
Todas las promesas de mi amor se irán contigo
          F             Dm    C
lo olvidaras, lo olvidaras
  Bb                                         Dm 
y en mi habitación te llorare igual que un niño
            F
por que te vas,
A           Dm
por que te vas


Verso 3
-------

Igual que 1

Verso 4
-------

Igual que 2

Choro
-----

Solo
-----

El solo es relativamente facil de aprender. Lo unico
que cuesta un poquito es el final... Hice varias
versiones, pero puse la que me parecia mas ceracan a lo
que tocan..

e|----------------------------|X3 
B|----------------------------|
G|---3-2-0--3h5p3-2-----------|
D|----------------------------|
A|----------------------------|
E|----------------------------|

e|-------------------------------| 
B|-------------------------------|
G|---3h5p3--0-2---2/7-77-55--3-2-|
D|-------------------------------|
A|-------------------------------|
E|-------------------------------|

Choro X3
-------
		   
AcordesyTabs.com © 2008 Acordes y Tablaturas para guitarra. Tabs and Chords for guitar. Aviso Legal - Contacto
El uso de este sitio está sujeto a la aceptación de los términos y condiciones (32 usuarios online)