tablaturas, partituras y acordes para guitarra
Busca por banda/artista:
 
y/o título de la canción:
A B C D E F G H I J K L M N O P Q R S T U V W X Y Z 0 1 2 3 4 5 6 7 8 9 / Top 100 tabs
Categorías
Usuarios
usuario:
Darse de alta
password:
Artistas más visitados
Publicidad
TOP acordes y tablaturas de Christina Aguilera


Por siempre tu
de Christina Aguilera
Puntúa este acorde/tab:      
(0.8/5)
Reportar este acorde/tab
  Añadir a tus favoritos
  Imprimir
La estructura de la cancion es: Intro, Verso, Coro, Verso, Coro, Solo, Coro...

Los simbolos utilizados son:
h - Hammer On (Martilleo)
P - Pull Off
/  - Slide
( ) - Nota que puede ser obviada

Intro:

E|----------------------|------------------------
B|-11-11-11-11-9-14-----|------------------------
G|------------------11--|---10h11---------8h9-11-
D|----------------------|---------(11)-----------
A|----------------------|------------------------
E|----------------------|------------------------

E|--------------------|
B|--7-11h12-11-11-9-9-|
G|--------------------|
D|--------------------|
A|--------------------|
E|--------------------|

Despues del primer Coro:

E|---------------------------------------------|
B|------------------------------6h7-6----------|
G|-11-10-11-11-11-10-11-8p6-6h8---------8-6-(8)|
D|---------------------------------------------|
A|---------------------------------------------|
E|---------------------------------------------|

Solo:

E|-----------------------------------------------------
B|-11-11-11-12-10----12--13p12-----------15------------
G|----------------12-----------12-11-12-----12-11/911-
D|-----------------------------------------------------
A|-----------------------------------------------------
E|-----------------------------------------------------

E|----12-10-8-7h8-------------10-8-7h8p7-|
B|------------------8-8-7h8-7------------|
G|-11------------------------------------|
D|---------------------------------------|
A|---------------------------------------|
E|---------------------------------------|
		   
AcordesyTabs.com © 2008 Acordes y Tablaturas para guitarra. Tabs and Chords for guitar. Aviso Legal - Contacto
El uso de este sitio está sujeto a la aceptación de los términos y condiciones (19 usuarios online)