tablaturas, partituras y acordes para guitarra
Busca por banda/artista:
 
y/o título de la canción:
A B C D E F G H I J K L M N O P Q R S T U V W X Y Z 0 1 2 3 4 5 6 7 8 9 / Top 100 tabs
Categorías
Usuarios
usuario:
Darse de alta
password:
Artistas más visitados
Publicidad
TOP acordes y tablaturas de Christina Aguilera


Por siempre tu
de Christina Aguilera
Puntúa este acorde/tab:      
(0.3/5)
Reportar este acorde/tab
  Añadir a tus favoritos
  Imprimir
Bueno, muchisimas gracias por todos los mails que he recibido donde me muestran su agrado por
el trabajo que he realizado, y pues bueno, esta es una de las peticiones que me hicieron y...
... pues aqui la tienen!!! Disfrutenla!!!

                            POR SIMPRE TU (Transcripcion para Bajo)
                          Cristhina Aguilera

Transcrita por: Nestor Sadao Arechiga Cervantes


La afinacion del Bajo es normal (E A D G) 
Empezamos!!!


  Q=69
 4/4
  Gtr I
  Q  +S  S E +Q   +S  S E   Q  +S  S E +Q   +S  S E   Q  +S  S E +Q   +S  S E
|-------------------------|-------------------------|-------------------------|
|-4--(4)---4-(4)--(4)---4-|-2--(2)---1-(1)--(1)---1-|-------------------------|
|-------------------------|-------------------------|-4--(4)---4-(4)--(4)---4-|
|-------------------------|-------------------------|-------------------------|


  Q  +S  S E +Q   +S  S E   Q  +S  S E +Q   +S  S E   Q  E E +Q   Q
|-------------------------|-------------------------|----------------|
|-------------------------|-1--(1)---1-(1)--(1)---4-|------6-(6)-----|
|-3--(3)---3-(3)--(3)---3-|-------------------------|-4--------------|
|-------------------------|-------------------------|-------------4--|


  Q  +S  S E +Q   +S  S E   Q  +S  S E +Q   +S  S E   Q  +S  S E +Q   +S  S E
|-------------------------|-------------------------|-------------------------|
|-------------------------|-------------------------|-1--(1)---1-(1)--(1)---1-|
|-4--(4)---4-(4)--(4)---4-|-3--(3)---3-(3)--(3)---3-|-------------------------|
|-------------------------|-------------------------|-------------------------|


  Q  +S  S E +Q   +S  S S S   Q  +S  S E +Q   +S  S E
|---------------------------|-------------------------|
|-----------------------1-3-|-1--(1)---1-(1)--(1)---1-|
|-3--(3)---3-(3)--(3)-------|-------------------------|
|---------------------------|-------------------------|


  Q  +S  S E +Q   +S  S S S
|----------------------------|
|-----------------------1-3--|
|-4--(4)---3-(3)--(3)--------|
|----------------------------|


  Q  +S  S E +Q   +S  S E   Q  +S  S E +Q   Q    H    H      H    H
|-------------------------|--------------------|-----------|-----------|
|-4--(4)---4-(4)--(4)---4-|-6--(6)---6-(6)-----|-----------|-----------|
|-------------------------|--------------------|-4----6----|-4---------|
|-------------------------|-----------------4--|-----------|------6----|


  Q  +S  S E +Q   +S  S E   Q  +S  S E +Q   Q    H    H      H    H
|-------------------------|--------------------|-----------|-----------|
|-------------------------|--------------------|-----------|-----------|
|-------------------------|--------------------|-4----6----|-4----2----|
|-8--(8)---8-(8)--(8)---8-|-4--(4)---4-(4)--4--|-----------|-----------|


  Q  +S  S E +Q   +S  S E   Q  +S  S E H      Q  +S  S E +Q   +S  S E
|-------------------------|-----------------|--------------------------|
|-------------------------|-----------------|-4--(4)---4-(4)--(4)---4--|
|-1--(1)---1-(1)--(1)---1-|-0--(0)---0------|--------------------------|
|-------------------------|------------4----|--------------------------|


  Q  +S  S E +Q   +S  S E   Q  +S  S E +Q   +S  S E   Q  +S  S E +Q   +S  S E
|-------------------------|-------------------------|-------------------------|
|-2--(2)---1-(1)--(1)---1-|-------------------------|-------------------------|
|-------------------------|-4--(4)---4-(4)--(4)---4-|-3--(3)---3-(3)--(3)---3-|
|-------------------------|-------------------------|-------------------------|


  Q  +S  S E +Q   +S  S E   Q  E E +Q   Q    Q  +S  S E +Q   +S  S E
|-------------------------|----------------|-------------------------|
|-1--(1)---1-(1)--(1)---4-|------6-(6)-----|-------------------------|
|-------------------------|-4--------------|-4--(4)---4-(4)--(4)---4-|
|-------------------------|-------------4--|-------------------------|


  Q  +S  S E +Q   +S  S E   Q  +S  S E +Q   +S  S E
|-------------------------|-------------------------|
|-------------------------|-1--(1)---1-(1)--(1)---1-|
|-3--(3)---3-(3)--(3)---3-|-------------------------|
|-------------------------|-------------------------|


  Q  +S  S E +Q   +S  S S S
|---------------------------|
|-----------------------1-3-|
|-3--(3)---3-(3)--(3)-------|
|---------------------------|


  Q  +S  S E +Q   +S  S E
|-------------------------|
|-1--(1)---1-(1)--(1)---1-|
|-------------------------|
|-------------------------|


  Q  +S  S E +Q   +S  S S S   Q  +S  S E +Q   +S  S E
|---------------------------|-------------------------|
|-----------------------1-3-|-4--(4)---4-(4)--(4)---4-|
|-4--(4)---3-(3)--(3)-------|-------------------------|
|---------------------------|-------------------------|


  Q  +S  S E +Q   Q    H    H      H    H      Q  +S  S E +Q   +S  S E
|--------------------|-----------|-----------|---------------------------|
|-6--(6)---6-(6)-----|-----------|-----------|---------------------------|
|--------------------|-4----6----|-4---------|-3--(3)---3-(3)--(3)---3---|
|-----------------4--|-----------|------6----|---------------------------|


  Q  +S  S E +Q   Q    H    H      H    H      Q  +S  S E +Q   +S  S E
|--------------------|-----------|-----------|---------------------------|
|--------------------|-----------|-----------|---------------------------|
|--------------------|-4----6----|-4----2----|-1--(1)---1-(1)--(1)---1---|
|-4--(4)---4-(4)--4--|-----------|-----------|---------------------------|


  Q  +S  S E +Q   +S  S E   Q  +S  S E H
|-------------------------|-----------------|
|-------------------------|-4--(4)---4-4----|
|-4--(4)---4-(4)--(4)---4-|-----------------|
|-------------------------|-----------------|


  Q  +S  S E H      Q  +S  S E H
|-----------------|-----------------|
|-3--(3)---3-3----|-1--(1)---1-1----|
|-----------------|-----------------|
|-----------------|-----------------|


  Q  +S  S E H      Q  +S  S E H      Q  +S  S E H      Q  +S  S E H
|-----------------|-----------------|-----------------|-----------------|
|-1--(1)---1------|-4--(4)---4-4----|-3--(3)---3-3----|-1--(1)---1-1----|
|-----------------|-----------------|-----------------|-----------------|
|-----------------|-----------------|-----------------|-----------------|


  E E Q  H      W           H    H      H    H
|-------------|----------||-----------|-----------|
|-------------|----------||-1----3----|-1---------|
|-3-----------|----------||-----------|------3----|
|-------------|----------||-----------|-----------|


  Q  +S  S E +Q   +S  S E   Q  +S  S E +Q   Q    H    H      H    H
|-------------------------|--------------------|-----------|-----------|
|-------------------------|--------------------|-----------|-----------|
|-5--(5)---5-(5)--(5)---5-|--------------------|-6----8----|-6---------|
|-------------------------|-6--(6)---6-(6)--6--|-----------|------8----|


  Q  +S  S E H      Q  +S  S E H      Q  +S  S E H      Q  +S  S E H
|-----------------|-----------------|-----------------|-----------------|
|-----------------|-4--(4)---4-3----|-----------------|-4--(4)---4-3----|
|-----------------|-----------------|-3--(3)---3-1----|-----------------|
|-8--(8)---8-6----|-----------------|-----------------|-----------------|


  H    +Q..   S
|------------------*|
|-1----(1)---------*|
|-1----(1)---------*|
|-3----(3)---------*|

FIN!!!
- BUENO AQUI ABAJO ESTA EL SIGNIFICADO DE LAS LETRAS Y LOS SIGNOS...
- ESPERO QUE LES HAYA AGRADADO Y SOBRETODO QUE LE HAYAN ENTENDIDO...
- POR SI ALGUNA RAZON NO LE ENTIENDEN PUES HECHENME UN MAIL A: sNaKePiTs@guitar.com
- SI QUIEREN ALGUNA PETICION PUES TAMBIEN HECHENME UN MAIL...
- ESTA CANCION Y OTRAS LAS TENGO EN ARCHIVOS POWERTAB, POR SI ALGUIEN LA QUIERE...
  PUES HECHENME UN MAIL PIDIENDOLAS...
- LOS VERE EN LA PROXIMA CANCION!!!...


NOTA!!!: PUEDEN UTILIZAR ESTA TAB PARA PUBLICARLA DONDE USTEDES
QUIERAN, PERO POR FAVOR LES RUEGO QUE ME DEN LOS CREDITOS COMO
TRANSCRIPTOR DE LA MISMA...GRACIAS!!!

NESTOR SADAO ARECHIGA CERVANTES (sNaKePiTs@guitar.com)


LEYENDA DE LAS NOTAS:

W = (REDONDA)     NOTA COMPLETA
H = (BLANCA)      MEDIA NOTA
Q = (NEGRA)       CUARTO DE NOTA
E = (CORCHEA)     OCTAVO DE NOTA
S = (SEMICORCHEA) DIECISEISAVA DE NOTA
T = (FUSA)        TREINTAIDOSAVA DE NOTA
X = (SEMIFUSA)    SESENTAICUATROAVA DE NOTA

a  =  ACCIACCATURA
+  =  LIGADURA
.  =  AUMENTA LA DURACION DE LA NOTA
.. =  AUMENTA LA DOBLE DE LA DURACION DE LA NOTA



LEYENDA DEL 'PENTAGRAMA'
 |  - COMPAS
||  - DOBLE COMPAS
||o - ES DONDE VA A COMENZAR CUANDO ALGO SE VA A REPETIR
o|| - ES DONDE VA A TERMINAR CUANDO ALGO SE VA A REPETIR
*|  - FIN DE LA CANCION
 :  - COMPAS LIBRE
 $  - SEGNO (AL VER ESTE SIGNO, TENEMOS QUE RETROCEDER HASTA VER EL SIGNO ANTERIOR $...)
 &  - CODA (SIGNIFICA QUE DEBES PASAR LA SIGUIENTE SIGNO &)
		   
AcordesyTabs.com © 2008 Acordes y Tablaturas para guitarra. Tabs and Chords for guitar. Aviso Legal - Contacto
El uso de este sitio está sujeto a la aceptación de los términos y condiciones (17 usuarios online)