tablaturas, partituras y acordes para guitarra
Busca por banda/artista:
 
y/o título de la canción:
A B C D E F G H I J K L M N O P Q R S T U V W X Y Z 0 1 2 3 4 5 6 7 8 9 / Top 100 tabs
Categorías
Usuarios
usuario:
Darse de alta
password:
Artistas más visitados
Publicidad
TOP acordes y tablaturas de Rondalla del Amor de Saltillo


Y si amarte es morir
de Rondalla del Amor de Saltillo
Puntúa este acorde/tab:      
(0.4/5)
Reportar este acorde/tab
  Añadir a tus favoritos
  Imprimir
   Versión del disco:


Intro:  Solo son las tres primeras cuerdas, las otras no se ocupan
      por eso no las incluyo

    D       Bm            G       A7        
G ----------------------------------------------------
B -3-5-7----3-5-7----8-10-12-12-10-10-8----7-5-7------
e -2-3-5----2-3-5----7--9-10-10--9--9-7----5-3-5------

   D        Bm          G          A7
G ----------------------------------------------------
B -3-5-7----3-5-7----8-10-12-12-10-10----12-10--------
e -2-3-5----2-3-5----7--9-10-10--9--9----10--9--------


         D                     Bm                          G
   Ha pasado tanto tiempo amor, otros brazos me ofrecieron su calor,
                Em         A7
pero en mi corazón, vives tú,
       D                          Bm                          G
he llorado tantas noches del dolor, que dejaste al marcharte sin razón,
                 Em              A7
y no lo puedo evitar... no te puedo olvidar...


                 G                             A7
   Y es que no puedo borrar tantas noches de amor,
              F#m                     B7
donde has querido dejar solo a mi corazón,
             Em                           A7
que no te quiere olvidar muero en mi soledad.


           G                                A7     
   Y si amarte es morir, he de morirme de amor,
                 F#m                   B7
una vez lo entregué... tuyo es mi corazón,
        Em                            A7
no lo puedo olvidar, no lo puedo olvidar....



    D       Bm            G       A7        
G ----------------------------------------------------
B -3-5-7----3-5-7----8-10-12-12-10-10-8----7-5-7------
e -2-3-5----2-3-5----7--9-10-10--9--9-7----5-3-5------

   D        Bm          G          A7
G ----------------------------------------------------
B -3-5-7----3-5-7----8-10-12-12-10-10----12-10--------
e -2-3-5----2-3-5----7--9-10-10--9--9----10--9--------



                 G                             A7
   Y es que no puedo borrar tantas noches de amor,
              F#m                     B7
donde has querido dejar solo a mi corazón,
             Em                           A7
que no te quiere olvidar muero en mi soledad.


           G                                A7     
   Y si amarte es morir, he de morirme de amor,
                 F#m                   B7
una vez lo entregué... tuyo es mi corazón,
        Em                            A7
no lo puedo olvidar, no lo puedo olvidar....



    D       Bm            G       A7        
G ----------------------------------------------------
B -3-5-7----3-5-7----8-10-12-12-10-10-8----7-5-7------
e -2-3-5----2-3-5----7--9-10-10--9--9-7----5-3-5------

   D        Bm             G        A7            D
G ----------------------------------------------------
B -3-5-7----3-5-7----8-10-12-12-10-10----8-7-8-10-12--
e -2-3-5----2-3-5----7--9-10-10--9--9----7-5-7--9-10--



   Esta canción va dedicada a todos aquellos que tienen algo que decir
a ese alguien que no los escucha... 
   Dudas, sugerencias, comentarios, peticiones, a mis correos...
		   
AcordesyTabs.com © 2008 Acordes y Tablaturas para guitarra. Tabs and Chords for guitar. Aviso Legal - Contacto
El uso de este sitio está sujeto a la aceptación de los términos y condiciones (27 usuarios online)