tablaturas, partituras y acordes para guitarra
Busca por banda/artista:
 
y/o título de la canción:
A B C D E F G H I J K L M N O P Q R S T U V W X Y Z 0 1 2 3 4 5 6 7 8 9 / Top 100 tabs
Categorías
Usuarios
usuario:
Darse de alta
password:
Artistas más visitados
Publicidad
TOP acordes y tablaturas de Stone temple pilots


Estás en: Inicio > Letra S > Acordes y tablaturas de Stone temple pilots > Interstate love song intro
Interstate love song intro
de Stone temple pilots
Puntúa este acorde/tab:      
(0.2/5)
Reportar este acorde/tab
  Añadir a tus favoritos
  Imprimir

#---------------------------------YOU BEST NOTE-------------------------------#
#This file is the author's own work and represents their interpretation of the#
#song. You may only use this file for private study, scholarship, or research.#
#-----------------------------------------------------------------------------#
#---------------------------------YOU BEST NOTE-------------------------------#
#This file is the author's own work and represents their interpretation of the#
#song. You may only use this file for private study, scholarship, or research.#
#-----------------------------------------------------------------------------#

STP

Interstate Love Song Intro

by Brian S.

Intro :
e--0-------0----0------0--------0--0--0----0------|
b--2b(3)~~r2----0---0---------0----0--0-x--0------|
g-------------------2-----1h2------1--1-x--1------|
d----------------------------------2--2-x--2-etc..|
a----------------------------------2--2-x--2------|
e----------------------------------0--0----0------|

Verse Chords :
e-----------------|
e-5---4---3---2---|
e-4---5---1---1---|
e-6---6---2---2---|
e-4---3---3---1---|
e-----------------|

		   
AcordesyTabs.com © 2008 Acordes y Tablaturas para guitarra. Tabs and Chords for guitar. Aviso Legal - Contacto
El uso de este sitio está sujeto a la aceptación de los términos y condiciones (19 usuarios online)