tablaturas, partituras y acordes para guitarra
Busca por banda/artista:
 
y/o título de la canción:
A B C D E F G H I J K L M N O P Q R S T U V W X Y Z 0 1 2 3 4 5 6 7 8 9 / Top 100 tabs
Categorías
Usuarios
usuario:
Darse de alta
password:
Artistas más visitados
Publicidad
TOP acordes y tablaturas de Attaque 77


Estás en: Inicio > Letra A > Acordes y tablaturas de Attaque 77 > Porque No Se Va Los De La Voz De Los 69
Porque No Se Va Los De La Voz De Los 69
de Attaque 77
Puntúa este acorde/tab:      
(0.4/5)
Reportar este acorde/tab
  Añadir a tus favoritos
  Imprimir
la guitarra deve estar afinada a un ritmo melodico bien melodico
como beethoven un poqito mas roquero como slipknot haci es mejor
la 3 cuerda afinada en un fa y la 4 en do mator
empiezas a puntiar 
a la nana

1--13---12---13---12---/--13---12---13---12--
2----13---13---13---13-/----12---12---12---12
3------23--------------/-----------------63--
4----------------5-----/-----32--------------
5-----------63---------/------------69-------
6----------------------/---------------------

y despues a tu hermana


1--13---12---13---12---/--------------
2----11---11---11---11-/---10---------
3----------------------/--------------
4----------------------/--------------
5----------------------/--------------
6----------------------/--------------
|-----------------|
|-----------------|
|-----------------|
|-----1-1-2-2-4-4-|
|-2-2-------------|
|-----------------|

Estrofa
Tu pones el ritmo
|---------|
|---------|
|-4-9-7---|
|-4-9-7-7-|
|-2-7-5-7-|
|-------5-|

Coro
|---------|
|---------|
|-4-------|
|-4-7-6-5-|
|-2-7-6-5-|
|---5-4-3-|

Solo

|----------------------------------------|
|-----------9-12-9---7-9-10-7----5-7-8-5-|
|---8-9-(11)-------9-----------7---------|
|-9--------------------------------------|
|----------------------------------------|
|----------------------------------------|
()=se toca la segunda vez

|-----------|
|-----------|
|---6-7-9-6-|
|-7---------|
|-----------|
|-----------|

|------------------------------------|
|-----------9-----------7------------|
|-11-8-9-11---9---9-7-9---7-----6----|
|---------------9-----------7-9---7--|
|------------------------------------|
|------------------------------------|

|---------------------------------|
|---------------------------------|
|---------------------------------|
|-----4-4-5-5-7-7-----4-4-5-5-7-7-|
|-5-5-------------5-5-------------|
|---------------------------------|

|----------------------------------|
|----------------------------------|
|----------------------------------|
|-----8-8-9-9-11-11-----8-8-9-9-11-|
|-9-9----------------9-9-----------|
|----------------------------------|

Bridge

|-------|
|-------|
|-------|
|-5-7-4-|
|-5-7-4-|
|-3-5-2-|

Final

|---------|
|---------|
|---------|
|--1-2-4--|
|-2-------|
|---------|


y hay esta les gusta
		   
AcordesyTabs.com © 2008 Acordes y Tablaturas para guitarra. Tabs and Chords for guitar. Aviso Legal - Contacto
El uso de este sitio está sujeto a la aceptación de los términos y condiciones (34 usuarios online)