tablaturas, partituras y acordes para guitarra
Busca por banda/artista:
 
y/o título de la canción:
A B C D E F G H I J K L M N O P Q R S T U V W X Y Z 0 1 2 3 4 5 6 7 8 9 / Top 100 tabs
Categorías
Usuarios
usuario:
Darse de alta
password:
Artistas más visitados
Publicidad
TOP acordes y tablaturas de Chayanne


Estás en: Inicio > Letra C > Acordes y tablaturas de Chayanne > Y tu te vas
Y tu te vas
de Chayanne
Puntúa este acorde/tab:      
(0.6/5)
Reportar este acorde/tab
  Añadir a tus favoritos
  Imprimir
Bueno...este es el solo de guitarra 
de una de las mejores canciones de chayanne,
fácil y nada de complicada...sólo practiquenla 
escuchando la canción para que vean los tiempos.

Tablatura:
/= slide
^= dejar sonando
h= hammer on

Aca empieza:(està en la escala del Si)
   ....de mi corazón..
e||------------------------------------------
b||--------------2-4-4/5^^5^^4h5-4-2-0^^^----
g||------------------------------------------
d||------------------------------------------
a||------------------------------------------
e||------------------------------------------

e|----7-9---7/9-99^-9^^--9-11-12-11-9--------
b|--------9---------------------------12^^---
g|-------------------------------------------
d|-------------------------------------------
a|-------------------------------------------
e|-------------------------------------------
   (ésta es la parte rápida)
e|----12/11----11---------------------------||
b|----------14----14-12-14-12-11------------||
g|-------------------------------12/////0---||
d|------------------------------------------||
a|------------------------------------------||
e|------------------------------------------||

Esa es toda la canción....cualquier duda a mi mail.
(sgomez_87@hotmail.com)
CHILE
		   
AcordesyTabs.com © 2008 Acordes y Tablaturas para guitarra. Tabs and Chords for guitar. Aviso Legal - Contacto
El uso de este sitio está sujeto a la aceptación de los términos y condiciones (29 usuarios online)