tablaturas, partituras y acordes para guitarra
Busca por banda/artista:
 
y/o título de la canción:
A B C D E F G H I J K L M N O P Q R S T U V W X Y Z 0 1 2 3 4 5 6 7 8 9 / Top 100 tabs
Categorías
Usuarios
usuario:
Darse de alta
password:
Artistas más visitados
Publicidad
TOP acordes y tablaturas de Angeles Negros


Y volveré
de Angeles Negros
Puntúa este acorde/tab:      
(0.5/5)
Reportar este acorde/tab
  Añadir a tus favoritos
  Imprimir
Aqui esta el INTRO para esta canción que tuvo mucho
exito por aquellas épocas.

E-2-5-2---|-0-2-4-2-0-----|---0-2-0------|
B------3--|-----------0-2-|-2-------2----|
G---------|---------------|-----------2-4|
D---------|---------------|--------------|
A---------|---------------|--------------|
E---------|---------------|--------------|

E---4----------2-|
B-6---6--4---4---|
G----------4-----|
D----------------|
A----------------|
E----------------|

  Amoooooooooooor adioooss...



Dudas,Comentarios,recetas,chismes.
              Tab: CHUY

CHUY-bass:       chuy_nomas@hotmail.com
Miguel-guitar:   wipirimva@starmedia.com
SALUDOS A TODA LA RAZA DE Monclova,Coah
		   
AcordesyTabs.com © 2008 Acordes y Tablaturas para guitarra. Tabs and Chords for guitar. Aviso Legal - Contacto
El uso de este sitio está sujeto a la aceptación de los términos y condiciones (63 usuarios online)