tablaturas, partituras y acordes para guitarra
Busca por banda/artista:
 
y/o título de la canción:
A B C D E F G H I J K L M N O P Q R S T U V W X Y Z 0 1 2 3 4 5 6 7 8 9 / Top 100 tabs
Categorías
Usuarios
usuario:
Darse de alta
password:
Artistas más visitados
Publicidad
TOP acordes y tablaturas de Angeles Negros


Y volveré
de Angeles Negros
Puntúa este acorde/tab:      
(0.7/5)
Reportar este acorde/tab
  Añadir a tus favoritos
  Imprimir
AQUI LES MANDO EL TAB DE ESTA CANCION
 QUE DE PURO ESCUCHARLA 
YA EMPIEZA A DAR SED.
ESTO CORRESPONDE A LA INTRODUCCION
 CON GUITARRA Y ADEMAS MANDO 
EL FRASEO QUE HACE UN ORGANO 
Y QUE SE INTERCALA CON EL PUNTEO 
DE GUITARRA, LA PARTE DE LA GUITARRA
 SE REPITE CUANDO EMPIEZA 
EL CANTANTE Y SERIA UNA 
ESPECIE DE FILL DESPUES 
DE CADA ESTROFA ESPERO
 QUE LES GUSTE, ES LO 
MAS PARECIDO A LA VERSIÓN 
ORIGINAL, SEGUN YO...
ESTO SE LO DEDICO A 
MI AMADA ESPOSA JESSICA.
CHAO.
MARCELO VALDERRAMA DAHMEN.

  
  GUITARRA           ORGANO
E--------------I-----------------------I
B--12-15-12----I--------12-15-14-12-14-I
G-----------12-I--12-14----------------I
D--------------I-----------------------I
A--------------I-----------------------I
E--------------I-----------------------I

     GUITARRA              ORGANO
E-----------------------I--------------I
B-----12-14-12----------I--14-12----12-I
G--14----------14----11-I--------14----I
D-----------------14----I--------------I
A-----------------------I--------------I
E-----------------------I--------------I

     GUITARRA              ORGANO
E-----------------------I--------------I
B--------12-------------I--12-11----11-I
G--12-14----14-12-------I--------14----I
D-----------------12-14-I--------------I
A-----------------------I--------------I
E-----------------------I--------------I

    GUITARRA             ORGANO
E--------------------I---------------------------I
B--------------------I--12-11--------------------I
G--12-11----------11-I--------12-11--------------I
D--------14-12-14----I--------------14-12-11-----I
A--------------------I------------------------14-I
E--------------------I---------------------------I
		   
AcordesyTabs.com © 2008 Acordes y Tablaturas para guitarra. Tabs and Chords for guitar. Aviso Legal - Contacto
El uso de este sitio está sujeto a la aceptación de los términos y condiciones (24 usuarios online)