tablaturas, partituras y acordes para guitarra
Busca por banda/artista:
 
y/o título de la canción:
A B C D E F G H I J K L M N O P Q R S T U V W X Y Z 0 1 2 3 4 5 6 7 8 9 / Top 100 tabs
Categorías
Usuarios
usuario:
Darse de alta
password:
Artistas más visitados
Publicidad
TOP acordes y tablaturas de Hamlet


Estás en: Inicio > Letra H > Acordes y tablaturas de Hamlet > Poseer bajo sumisión
Poseer bajo sumisión
de Hamlet
Puntúa este acorde/tab:      
(0.3/5)
Reportar este acorde/tab
  Añadir a tus favoritos
  Imprimir
+ Tabulados de made in spain!                   +
+ (http://mades.kaos.es)                        +
+++++++++++++++++++++++++++++++++++++++++++++++++

INTRO:

1|------------------------------------------|
2|------------------------------------------|
3|---------------------------------3-3------|
4|-0-2-0-2-0-2-0-3-3-0-2-0-2-0-2-0----------|

	En el INTRO empieza la 2ª guitarra, la 2ª vez se mete
la 1ª guitarra y a la 3ª vez se mete el bajo. Lo hacen 2 veces
todos y la siguiente vez la 1ª guitarra se hace una especie de
solo (ya lo mandare otro dia) y el bajo y la 2ª guitarra siguen
haciendo lo mismo.


1ª parte
1|---------------|
2|---------------|
3|----------4-3--|
4|-2*-3-2*-------|

*tocar seguido ese traste, los que no tienen asterisco tocar solo una vez.

2(4)				     3(4)	
No hay ficción, no hay acción
2(4)		       4(3)      3(3)
solo hay mierda alrededor


ESTRIBILLO

1|--------------|
2|--------------|
3|-7-6-4-7-6-9*-|
4|--------------|

*TOCAR SEGUIDO

7   6  4 7      6      9
Poseer bajo sumisión


La cancion vuelve a la 1ª parte, despues al estribillo, luego
al intro y por ultimo a la 2ª parte.

2ª parte

1|-------------------------------|
2|-------------------------------|
3|-------------------------------|
4|-0-0-0-0-3-3-2-0-0-0-0-3-3-5-5-|

La guitarra toca lo mismo pero con quintas. Cuando el bajo
toca el 0 de la 4ª cuerda la guitarra toca un Mi.

Mi

1 ||||||    
2 |**|||    
3 ||||||    
4 ||||||    
		   
AcordesyTabs.com © 2008 Acordes y Tablaturas para guitarra. Tabs and Chords for guitar. Aviso Legal - Contacto
El uso de este sitio está sujeto a la aceptación de los términos y condiciones (41 usuarios online)