tablaturas, partituras y acordes para guitarra
Busca por banda/artista:
 
y/o título de la canción:
A B C D E F G H I J K L M N O P Q R S T U V W X Y Z 0 1 2 3 4 5 6 7 8 9 / Top 100 tabs
Categorías
Usuarios
usuario:
Darse de alta
password:
Artistas más visitados
Publicidad
TOP acordes y tablaturas de Pescado Rabioso


Estás en: Inicio > Letra P > Acordes y tablaturas de Pescado Rabioso > Post-crucifixión
Post-crucifixión
de Pescado Rabioso
Puntúa este acorde/tab:      
(0.6/5)
Reportar este acorde/tab
  Añadir a tus favoritos
  Imprimir
  Riff1                                        Puente
e|-----------------------------------------||  e|----------------||
B|-----------------------------------------||  B|----------------||
G|-------------5---5-----------------------||  G|----------------||
D|-----------5---7---7-5-7-5---5-----------||  D|-7-7-5-7--7-5-7-||
A|-----5-6-7-----------------7---7-5-7-5---||  A|-7-7-5-7--7-5-7-||
E|-5-8-----------------------------------8-||  E|-5-5-3-5--5-3-5-||

  Riff2
e|----------------------------------||
B|----------------------------------||
G|-------------------------4--5---7-||
D|-7-x-7-x-7-x-7-x-5-x-5-x-4--5---7-||
A|-7-x-7-x-7-x-7-x-5-x-5-x-2--3---5-||
E|-5-x-5-x-5-x-5-x-3-x-3-x----------||
   A5              G5      B5 C5  D5

  Riff3
e|-----------------------------------------------------------------||
B|-----------------------------------------------------------------||
G|-7-x-7-x-7-x-7-x-5-x-5-x-5-x-5-x-----------------3-x-3-x-3-x-3-x-||
D|-7-x-7-x-7-x-7-x-5-x-5-x-5-x-5-x-3-x-3-x-3-x-3-x-3-x-3-x-3-x-3-x-||
A|-5-x-5-x-5-x-5-x-3-x-3-x-3-x-3-x-3-x-3-x-3-x-3-x-1-x-1-x-1-x-1-x-||
E|---------------------------------1-x-1-x-1-x-1-x-----------------||
   D5              C5              F5              Bb5


Intro: [Riff1]x6  Puente  [Riff2]x4

Riff2
Abrazame, madre del dolor
nunca estuve tan lejos, de mi cuerpo
Riff3
Abrazame, de la vida yo ya estoy repuesto.

Abrazame, madre, madre del dolor
nunca estuve tan solo, en este mundo.
Abrazame, amanece y hay resignación.

Am              Gm
 Y en esta quietud
Am                Gm
 que ronda a mi muerte
A/C#    G/B   F/A       G/B        A
 no tengo presagios de lo que vendrá.

Abrazame, madre del dolor
nunca estuve tan lejos, de este cuerpo.
Abrazame, de la vida yo ya estoy repuesto.
		   
AcordesyTabs.com © 2008 Acordes y Tablaturas para guitarra. Tabs and Chords for guitar. Aviso Legal - Contacto
El uso de este sitio está sujeto a la aceptación de los términos y condiciones (42 usuarios online)