tablaturas, partituras y acordes para guitarra
Busca por banda/artista:
 
y/o título de la canción:
A B C D E F G H I J K L M N O P Q R S T U V W X Y Z 0 1 2 3 4 5 6 7 8 9 / Top 100 tabs
Categorías
Usuarios
usuario:
Darse de alta
password:
Artistas más visitados
Publicidad
TOP acordes y tablaturas de Alejandro Fernandez


Promesa
de Alejandro Fernandez
Puntúa este acorde/tab:      
(0.2/5)
Reportar este acorde/tab
  Añadir a tus favoritos
  Imprimir
esta canciOn se escucha bien, me gusto el requinto
no creo que tenga errores de lo contrario e-mail me
__    
     
_  e||------------------------------------------------------------------------
_) B||---------------9--9/12--10h12--9--10--9---------------------------------
   G||--9--8--9--11----------------------------9--11--10--11--12--13----------
_  D||----------------------------------------------------------------11--11--
_) A||------------------------------------------------------------------------
   E||------------------------------------------------------------------------
__/  


__    
     
_  e||--------------------------------------------------------
_) B||-----14--12--12h14--10--10--9--9------------------------
   G||----------------------------------11--11--9--9----------
_  D||--11--------------------------------------------13--12--
_) A||--------------------------------------------------------
   E||--------------------------------------------------------
__/  


__    
     
_  e||---------------------
_) B||-------------5--5/7--
   G||----------7----------
_  D||-------7-------------
_) A||--7/9----------------
   E||---------------------
__/  


-----requinto de enmedio--------

__    
     
_  e||-----------------------------------------------------
_) B||-10--10--10--10--12/14--12h14--10--------------------
   G||-----------------------------------139--9--9--9--9--
_  D||-----------------------------------------------------
_) A||-----------------------------------------------------
   E||-----------------------------------------------------
__/  

__    
     
_  e||----------------------------------------------------------------
_) B||----------------------------------------------------------------
   G||--11--11h13--10--11--14--11--11--14--11-------------------------
_  D||-----------------------------------------1411--11--11--11--11--
_) A||----------------------------------------------------------------
   E||----------------------------------------------------------------
__/  

__    
     
_  e||----------------------------------------------12--
_) B||--------------------10--12/14--12h14--11--12------
   G||-------------9--11--------------------------------
_  D||--9--11--12---------------------------------------
_) A||--------------------------------------------------
   E||--------------------------------------------------
__/  

__    
     
_  e||--9----------------------------------------
_) B||-----12--10--9--------------9--10--11--12--
   G||----------------11--10--11-----------------
_  D||-------------------------------------------
_) A||-------------------------------------------
   E||-------------------------------------------
__/  

__          
     
_  e||--9--7--9--7---8--6--8--6--8---7--
_) B||--7--7--7--7---6--6--6--6--6---5--
   G||--7--7--7--7---6--6--6--6--6---5--
_  D||----------------------------------
_) A||----------------------------------
   E||----------------------------------
__/
		   
AcordesyTabs.com © 2008 Acordes y Tablaturas para guitarra. Tabs and Chords for guitar. Aviso Legal - Contacto
El uso de este sitio está sujeto a la aceptación de los términos y condiciones (34 usuarios online)