tablaturas, partituras y acordes para guitarra
Busca por banda/artista:
 
y/o título de la canción:
A B C D E F G H I J K L M N O P Q R S T U V W X Y Z 0 1 2 3 4 5 6 7 8 9 / Top 100 tabs
Categorías
Usuarios
usuario:
Darse de alta
password:
Artistas más visitados
Publicidad
TOP acordes y tablaturas de Gob


Estás en: Inicio > Letra G > Acordes y tablaturas de Gob > No regrets
No regrets
de Gob
Puntúa este acorde/tab:      
(0.3/5)
Reportar este acorde/tab
  Añadir a tus favoritos
  Imprimir

NO REGRETS BY GOB
Guitarists: Tom and Theo

 This Song kicks ass, i saw them Play it Live,and even though I didnt
look at there hands, im almopst certain this is correct.
 I dont have the lead guitar part for the Chorus though :(
 AND IF U LIKE GOB, I RECOMMEND U SEE THEM LIVE, BECAUSE THEY KICK ASS
ANYWAY, HERE WE GO

SEND ANY COMMENTS TO: that_darn_punk@msn.com

INTRO - Drums

INTRO - Bass and Drums

INTRO - Guitar comes in with this little doobie.

E|---------------|
B|-22222-3-222-2-|
G|-22222-2-222-4-|
D|---------------|
A|---------------|
E|---------------|

VERSE Part 1 - "All The Things That I've Regretted"

E|----------------------------|
B|----------------------------|
G|----------------------------|
D|-7~~--7~~--2222222222222222-|
A|-7~~--7~~--2222222222222222-|
E|-5~~--5~~--0000000000000000-|

VERSE Part 2 - "Even Though Your Not a Go-Getter..."

E|---------------------------------|
B|---------------------------------|
G|---------------------------------|
D|-777777777777777-2222222-4444444-|>
A|-777777777777777-2222222-4444444-|>to chorus
E|-555555555555555-0000000-2222222-|>

CHORUS - "But I Know I Know..."

E|---------------------|
B|---------------------|
G|------7777------9999-|
D|-7777-7777-4444-9999-|
A|-7777-5555-4444-7777-| x2
E|-5555------2222------|

END OF CHORUS(After Theo sings "No Regrets")

E|------------|
B|------------|
G|-------99-7-| To Second Verse
D|-7-7-7-99-7-|
A|-7-7-7-77-5-|
E|-5-5-5------|

SECOND VERSE - 
VERSE PART 1 except the A Power Chord is played all the way through and
doesnt ring.

VERSE PART 2

CHORUS

END OF CHORUS

SOLO - Heres the Cool Little Solo

LEAD GUITAR
PART 1
E|-------------------------------------------------------------------------------|
B|-------------------5----------9-7-------------------5--------------------------|
G|-66666-7-66-4-66666-7-6---4~--9-7-66666-7-66-4-66666-7-6--4~-44-4-6~-7-6-4h6p4-|
D|------------------------7---7----------------------------7-----7---------------|
A|-----------------------------7-------------------------------------------------|
E|-------------------------------------------------------------------------------|

PART 2
E|---------------------------------------------------------|
B|---5----------------------5--------------------------5---|
G|-----7~7-6-77-6-7-4-6-7-----7~-7-66-7-6-9B-7p6h7p6----7~-|
D|-7----------------------7--------------------------7-----|
A|---------------------------------------------------------|
E|---------------------------------------------------------|

RHYTHM GUITAR

During Solo Part 1, Play The Whole Verse(UnPalmuted and No Rests)
During Solo Part 2, Play The Chorus(dont worry about the End Chorus)

POST SOLO - Go Rite Into this After the Solo
BOTH GUITARS Do This - Except Only 1 Does the Pick Screech.

E|-----------------------------------|
B|-----------------------------------|
G|-----------------------------------|
D|-44-55-7~-\\\\\\\-44-55-7~--|
A|-44-55-7~-PICK SCREECH-44-55-7~--|
E|-22-33-5~-\\\\\\\-22-33-5~--|

BRIDGE (Just Bass and Drums Again)

THERE IS NO GUITAR, SO VERSE PART 1 ISNT PLAYED

VERSE PART 2 - BRIDGE VERSION

E|-----------------------------------------|
B|-----------------------------------------|
G|-----------------------------------------|
D|-7~-\\\\\\\-2222222222-4444444444-|
A|-7~-PICK SCREECH-2222222222-4444444444-|TO CHORUS
E|-5~-\\\\\\\-0000000000-2222222222-|

CHORUS

CHORUS

END OF CHORUS

END ON an [A] POWER CHORD


		   
AcordesyTabs.com © 2008 Acordes y Tablaturas para guitarra. Tabs and Chords for guitar. Aviso Legal - Contacto
El uso de este sitio está sujeto a la aceptación de los términos y condiciones (31 usuarios online)