tablaturas, partituras y acordes para guitarra
Busca por banda/artista:
 
y/o título de la canción:
A B C D E F G H I J K L M N O P Q R S T U V W X Y Z 0 1 2 3 4 5 6 7 8 9 / Top 100 tabs
Categorías
Usuarios
usuario:
Darse de alta
password:
Artistas más visitados
Publicidad
TOP acordes y tablaturas de Horcas


Psicosis
de Horcas
Puntúa este acorde/tab:      
(0.5/5)
Reportar este acorde/tab
  Añadir a tus favoritos
  Imprimir
Afinar la guitarra en RE (D)
Intro:
con bajo uno instantes
ahora la guitarra
1|--------16-14--------------------------------------------->
2|-14(16)-------17-16--------------------------------------->
3|--------------------16-16--14/16--1412--12/14--12/14/12-->
4|---------------------------------------------------------->
5|---------------------------------------------------------->
6|---------------------------------------------------------->

------------------------------------------------------------>
--------------------------6--------------------------------->
--12-10-10/12/10-5-7~-7-9---9-7-7-5-5/7--7-7--7/5-5/4-4/5/4->
------------------------------------------------------------>
------------------------------------------------------------>
------------------------------------------------------------>

-------------| Es algo así
-------------| manden un email
-3-2-2/3/2---| cualquier error
-------------|
-------------|
-------------|

Riff 1
1|--------------------------------|
2|--------------------------------|
3|--------------------------------|
4|-9--7--9--10--------------------|
5|-7--5--7--8-8-8-8--8-8-8--8-8-8-|
6|--------------------------------|
             pm................... 

Riff 2
1|------------------------------------|
2|------------------------------------|
3|------------------------------------|
4|-9--7--9--10-12---------------------|
5|-7--5--7--8--10--10-10-10--10-10-10-|
6|------------------------------------|
                  pm.................

Riff 3
1|-----------------------------------------|
2|-----------------------------------------|
3|-----------------------------------------|
4|-----------------------------------------|
5|-7------------2--3--7------------2--5--3-|
6|-5-5-5-5-5-5--0--1--5-5-5-5-5-5--0--3--1-|
    pm.........        .......... 

Riff 4
1|-------------------------------------------------------|
2|-------------------------------------------------------|
3|-------------------------------------------------------|
4|-------------------------------------------------------|
5|-7--7--7-7--7--5--5--5-5--5--3--3--3-3---3--5-5--3-5-7-|
6|-5--5--5-5--5--3--3--3-3--3--1--1--1-1---1--3-3--1-3-5-|
        pm..          .....         .....    

Repite
Riff 1

Riff 5
1|--------------------------------------------------------|
2|------------------------------------------------------0-|
3|-----7----7------------7-----7-----------5-----5------0-|
4|---5-----5-----5-----5-----5-----5-----3-----3-----3--2-|
5|-5-----5-----5-----6-----6-----6-----3-----3-----3----2-|
6|------------------------------------------------------0-|

Riff 4
Riff 1
Riff 5
queda tocando el topo la intro
solo: ?
Riff 1
final con Riff 3

Eso estodo espero que les sirva
HORCAS ES LA MEJOR BANDA NACIONAL
		   
AcordesyTabs.com © 2008 Acordes y Tablaturas para guitarra. Tabs and Chords for guitar. Aviso Legal - Contacto
El uso de este sitio está sujeto a la aceptación de los términos y condiciones (21 usuarios online)