tablaturas, partituras y acordes para guitarra
Busca por banda/artista:
 
y/o título de la canción:
A B C D E F G H I J K L M N O P Q R S T U V W X Y Z 0 1 2 3 4 5 6 7 8 9 / Top 100 tabs
Categorías
Usuarios
usuario:
Darse de alta
password:
Artistas más visitados
Publicidad
TOP acordes y tablaturas de Los Bunkers


Estás en: Inicio > Letra L > Acordes y tablaturas de Los Bunkers > Yo sembre mis penas de amor en tu jardin
Yo sembre mis penas de amor en tu jardin
de Los Bunkers
Puntúa este acorde/tab:      
(0.3/5)
Reportar este acorde/tab
  Añadir a tus favoritos
  Imprimir

Intro:

 Guitarra #1

   E    A    B  A     E    A    B  A  
e--0----0----2--0-----0----0----2--0--------
B--0----2----4--2-----0----2----4--2--------
G--1----2----4--2-----1----2----4--2--------
D--2----2----4--2-----2----2----4--2--------
A--2----0----2--0-----2----0----2--0--------
E--0------------------0---------------------
                    
 Guitarra #2          
                   
e--4----5----7--5----12----9---11--9--------
B--5----5----7--5----12---10---12-10--------
G--4----6----8--6----13----9---11--9--------



Riff #1 Guitarra 1

e-------------------------------------
B-------------------------------------
G------1---2-2--2-2/4-2-1-2-2/4-2-1---
D--2-2---2----------------------------  x2  
A-------------------------------------
E-------------------------------------

Riff #2 Guitarra 2

e--2-2-2-2----------------------------
B-5-5-5-5-4-2-2-----------------------
G------------4--1-2-------------------  
D------------------4-6----------------  x2
A-------------------------------------
E-------------------------------------

Riff #3 Guitarra 1

e-------------------------------------
B-------------2-2/4-2---2-2/4-2-------
G-----1---2-2---------4---------4-----
D-2-2---2-----------------------------
A-------------------------------------
E-------------------------------------

Riff #4 Guitarra 2

e--2-2-2-4-4-2-2----------------------
B-5-5-5-5-------5-5-4-4---------------
G----------------------4--------------
D-------------------------------------
A-------------------------------------
E-------------------------------------


* El riff #1 y 2# se toca al mismo tiempo en el intro *

* El riff #3 y 4# se toca en el verso*

* En el verso las 2 guitarras tocan los mismos acordes 
  aquí les indico  cuando se tocan los riffs de cada guitarra. *           


a)                           (Riff#1)
  E   A    B       A          E       A  B A
  Mírame y dime si puedes ver quién soy
   
                             (Riff#3 y #4 al mismo tiempo)                 
  E   A    B       A           E     A  B  A 
  Tócame y te llevaré hacia donde voy  

b)C#m         F#
  Crees que puedes soñar 
e--4--4--4--4--6--6--6--6---  
B--5--5--5--5--7--7--7--7--- Guitarra #2
G--6--6--6--6--6--6--6--6---  

  E             F#   
  sin siquiera pestañear
e--7--7--7--7---6--6--6--6--
B--9--9--9--9---7--7--7--7-- Guitarra #2
G--9--9--9--9---6--6--6--6--
  
     E  A    B         A          Riff#1
  oh dime realmente si puedes ver quién soy

a)E   A    B       A         Riff#1 
  Mírame y dime si puedes ser feliz
  Riff#2                           (Riff#3 y #4)
  Yo sembré mis penas de amor en tu jardín
  
b)C#m          F#
  No podrás disimular 
e--4--4--4--4--6--6--6--6---  
B--5--5--5--5--7--7--7--7--- Guitarra #2
G--6--6--6--6--6--6--6--6---  
  
  E             F#
  que tu corazón se quedó
e--7--7--7--7---6--6--6--6--
B--9--9--9--9---7--7--7--7-- Guitarra #2
G--9--9--9--9---6--6--6--6--

    E  A   B        A         Riff#1
  atrás jugando con el de los demás

c)G            A           E 
   Tristezas puedo  asegurar
e---7-----7-----9-----9----4-4-4-4--
B-----8-8---8----10-10-10--5-5-5-5-- Guitarra #2
G--7---7-----7/9---9-----9/4-4-4-4--
                           «-----» se toca rasgueando
                                    (sólo la sección marcada)
  G           A            E 
   Para que podamos      jugar  
e---7-----7-----9-----9----4-4-4-4--
B-----8-8---8----10-10-10--5-5-5-5-- Guitarra #2
G--7---7-----7/9---9-----9/4-4-4-4--
                           «-----» se toca rasgueando
  
  G             A              D         C#m  Bm  A   
   no importa el tiempo que debamos     esperar   
e----7-----7--------9-----9----10--10---9-9--7-7---7-----
B------8-8---8-------10-10-10----10--10--9-9--7---8-8---- Guitarra #2
G--7----7------7/9-----9-----9-------------------7---7---

  G             F#         B
   siempre es inoportuno amar
e-----3----------2-------------2------------2-----
B---3---3------2---2-------4-----4------4-----4--- Guitarra #2
G-4-------4--3-------3---4---4-----4--4---4-----4-
                           
a)E   A    B       A          Riff#1
  Mírame y dime si puedes ser feliz 
  Riff#2                            Riff#3 y #4
  yo sembré mis penas de amor en tu jardín                                         


SOLO (Guitarra#1):
=================
  E           A           B          A
e-12-12-11-11-12-12-12-12------------12-12---
B-12-12-------14-14-12-12-10-10-9-10-12-12---  x2
G--------------------------------------------
  E           A       B   A
e-2/4-4-2-2-0-0-----0-2-4-5-4--
B-4/5-5-4-4-2-2-4-4-2-4-5-7-5--
G---------------4-4------------
  E           A       B   A
e-2/4-4-2-2-0-0-----0-2-4-2-0--
B-4/5-5-4-4-2-2-4-4-2-4-5-4-2--
G---------------4-4------------

b)C#m         F#
  Crees que puedes soñar 
e--4--4--4--4--6--6--6--6---  
B--5--5--5--5--7--7--7--7--- Guitarra #2
G--6--6--6--6--6--6--6--6---  

  E             F#   
  sin siquiera pestañear
e--7--7--7--7---6--6--6--6--
B--9--9--9--9---7--7--7--7-- Guitarra #2
G--9--9--9--9---6--6--6--6--

a)  
     E  A    B         A          E       A
  oh dime realmente si puedes ver quién soy
     B      A              E     A
  oh dime si puedes ver quién soy
     B       A            E    A
  Y te llevaré hacia donde voy
     B       A
  oh dime si puedes ver 
     E    A   B  A    E   A   B  A    E
  quién soy
e----0----0---2--0----0---0---2--0----0~----
B----0----2---4--2----0---2---4--2----0~----
G----1----2---4--2----1---2---4--2----1~---- Guitarra #1
D----2----2---4--2----2---2---4--2----2~----
A----2----0---2--0----2---0---2--0----2~----
E----0----------------0---------------0~----

e----4----5---7--5---12---9--11--9----4~----
B----5----5---7--5---12--10--12-10----5~---- Guitarra #2
G----4----6---8--6---13---9--11--9----4~----
		   
AcordesyTabs.com © 2008 Acordes y Tablaturas para guitarra. Tabs and Chords for guitar. Aviso Legal - Contacto
El uso de este sitio está sujeto a la aceptación de los términos y condiciones (79 usuarios online)