tablaturas, partituras y acordes para guitarra
Busca por banda/artista:
 
y/o título de la canción:
A B C D E F G H I J K L M N O P Q R S T U V W X Y Z 0 1 2 3 4 5 6 7 8 9 / Top 100 tabs
Categorías
Usuarios
usuario:
Darse de alta
password:
Artistas más visitados
Publicidad
TOP acordes y tablaturas de Sin Bandera


Puede ser
de Sin Bandera
Puntúa este acorde/tab:      
(0.5/5)
Reportar este acorde/tab
  Añadir a tus favoritos
  Imprimir
Aquí les envío éste buen tema, espero les guste, cualquier duda, sugerencia envíenlo a
mi email OK? 
Éste tema tiene un rasgueo especial que lo deben sacar a oido.

(En mi colaboración de Amor Real, tuve un grave error '¿¿¿¿¿mi#???????'... espero me disculpen).


Capo en el 2º Traste

Intro: Asu2 Dsu2 Asu2 Dsu2 Asu2 Riff1 (o Dsu2 Asu2 Dsus2)


Riff 1

E---5-4-0-3-2-----------------------
B-------------3--3-3-3-2------------
G------------------------2--2-2-2~4--  


Asu2	       Dsu2       Dm7
Puede ser algo mágico, enigmático 
E            Asu2
fuera de control 
              Dsu2          Dm7
rutinario y colérico algo histérico 
E7              Asu2
grande como el sol.


               Dsu2         Dm7
Puede ser algo tímido, problemático 
E          Asu2
lleno de pasión 
	       Dsu2
temerario y fantástico 
     Dm7   E7    F     F#m
algo único como nuestro amor.


Pre Coro
        E          C#m7
Para llenar mi corazón 
       E7            F#m
es suficiente con tu voz
            E             Bm7 
todo lo que hay en tu interior 
Dsus2  E
yo lo quiero.


Coro

C#m7    DM7 Dsu2 Bm7
Todo lo que me    das 
        Dm7-E  Asu2
me hace amarte más 
   Dm7       E      Asu2
me acerca un poco a ti 
E      E7
cada segundo. 
C#m7     DM7 Dsu2 Bm7
Dormir o des-per - tar 
     Dm7-E  Asu2
reír o   llorar 
   Dm7    E      Asu2
me acerca más a ti 
E      E7       Asu2
amo tu mundo.

Riff 1

E---5-4-0-3-2------------------------
B-------------3--3-3-3-2-------------	x2
G------------------------2--2-2-2~4--  


Asu2          Dsu2
Puedo ser un lunático, 
     Dm7     E	         Asu2
un romántico terco sin razón 
               Dsu2
puedo ser un fanático 
      Dm7     E7           F#m
pero acéptalo sientes como yo


Pre Coro 
       E          C#m7
Para llenar mi corazón 
       E7            F#m
es suficiente con tu voz
            E             Bm7 
todo lo que hay en tu interior 
Dsu2  E
yo lo quiero


Coro

C#m7    DM7 Dsu2  Bm7
Todo lo que me    das 
        Dm7-E  Asu2
me hace amarte más 
   Dm7       E      Asu2
me acerca un poco a ti 
E      E7
cada segundo. 
C#m7     DM7 Dsu2  Bm7
Dormir o des-per - tar 
     Dm7-E  Asu2
reír o   llorar 
   Dm7    E      Asu2
me acerca más a ti 
E      E7       Asu2
amo tu mundo

E----------5-----9h10-----------------6h7-5--9h10-9----------------2---
B----7-5-------------10-----------------------------10-----------5-----
G--6-----7---7---------9-7---4---4h7-------------------9---7/6-7-------
D--------------------------7---7---------------------------------------



G---------2h4-2--1h2-------------2-2-1---------------------------------
D-4-6h7-6-------------2h4-2------4-4-2--4-2-4---4h5-4------------------
A--------------------4------4-0-----------------------5---7------------
E-------------------------------------------------------7--------------



Coro

C#m7    DM7 Dsu2  Bm7
Todo lo que me    das 
        Dm7-E  Asu2
me hace amarte más 
   Dm7       E      Asu2
me acerca un poco a ti 
E      E7
cada segundo. 
C#m7     DM7 Dsu2  Bm7
Dormir o des-per - tar 
     Dm7-E  Asu2
reír o   llorar 
   Dm7    E      Asu2
me acerca más a ti 
E      E7       Asu2
amo tu mundo

        E      E7    
	amo tu mundo
	^
	|
Riff1	|
	|
E---5-4-0-3-2------------------------
B-------------3--3-3-3-2-------------	
G------------------------2--2-2-2~4--  

	E      E7    
	amo tu mundo
	^
	|
	|
E--5-4-0~3-------------------------
B----------------------------------
G----------------------------------

        Pa ra ra ra ra ra ra		tú
	
E---5-4-0~3-0----------------------
B----------------------------------
G----------------------------------


 --------------------
|Definicón de Acordes|
 --------------------


 OO__OO/        XXO__O/       XXO___/       O___OO/     O_O_OO/             
 1||||||         1||||||        1||||OO        1|||O||      1|||O||            
  ||OO||          |||O||         |||O||         |OO|||       |O||||           
  ||||||          ||||O|         ||||||         ||||||       ||||||           
  ||||||          ||||||         ||||||         ||||||       |||||| 
 Asu=LAsus2    Dsu=REsus2      Dm7=REm7	        E  =MI       E7 =MI7

 ______/	 X_____/	 X_____/	 XO____/   \_XXOOO/
 1O|||OO	 2|||OOO	 4OOOOOO	 1||||||    1||||||
  |||O||	  ||||||	  ||||O|	  |||||O     |||OOO
  |OO|||	  |OO|||	  ||O|||	  ||||O|     ||||||
  ||||||	  ||||||          ||||||	  ||OO||     ||||||
  F  =FA	F#m =FA#m 	C#m7=DO#m7	 Bm7=SIm7    DM7=ReM7
	


Dedico éste tema y trabajo a Fátima...
		   
AcordesyTabs.com © 2008 Acordes y Tablaturas para guitarra. Tabs and Chords for guitar. Aviso Legal - Contacto
El uso de este sitio está sujeto a la aceptación de los términos y condiciones (27 usuarios online)