tablaturas, partituras y acordes para guitarra
Busca por banda/artista:
 
y/o título de la canción:
A B C D E F G H I J K L M N O P Q R S T U V W X Y Z 0 1 2 3 4 5 6 7 8 9 / Top 100 tabs
Categorías
Usuarios
usuario:
Darse de alta
password:
Artistas más visitados
Publicidad
TOP acordes y tablaturas de Joaquín Sabina


Estás en: Inicio > Letra J > Acordes y tablaturas de Joaquín Sabina > Yo tambien sé jugarme la boca
Yo tambien sé jugarme la boca
de Joaquín Sabina
Puntúa este acorde/tab:      
(0.3/5)
Reportar este acorde/tab
  Añadir a tus favoritos
  Imprimir
                                                 h=hammer, p=pull, / y =deslizar
                                                 
INTRO

  D#dim              Em7              A7               DM7           D#dim
----------------7-----------------10--9h10p9-9---7--------------12---11---------
-------------7-------10--8--7--8--------------------11-109/10-------10---------
----------8----------------------------------------------------------11---------
---7--10------------------------------------------------------------------------
--------------------------------------------------------------------------------
--------------------------------------------------------------------------------

         Em7        A7      Dm
---------------------------------------------------------------
---------8-8--7------------------------------------------------
-----------------9--9------------------------------------------
--7-/-9-------------------------7------8---7-------------------
----------------------------8------10--------10---8------------
---------------------------------------------------------------

ESTROFA 1

       Dm                  E7   A7                
Era el pez  con mejores caderas     
               Dm
del mar de la moda.
             ----------------------------------------------------
             ----------------------------------------------------
             ----------------------------------------------------
             ----------------2--3-/-5-5--3--3-p-2--2-p-0--0-----
             ---------0--5---------------------------------------
             ----------------------------------------------------

                                  D7
se dejaba achuchar por cualquiera 
                Gm
(incluyendome a mi).
       ---------10----8--8--8----6--6--6--6--5---/8----6--5--65/6------
       ---------11---10-10-10----8--8--8--8--7---/10---8--7--87/8------
       -----------------------------------------------------------------
       -----------------------------------------------------------------
       -----------------------------------------------------------------
       -----------------------------------------------------------------

      Gm                 Gm7M             Gm7                Gm6
Sus palabras               decian  de  memoria               lo que dicen todas,
---------10-------10--------10------10-------10-------10--------10------10------
------------11-------11--------11------11-------11-------11--------11------11---
------12-------12--------11------11-------10-------10--------9--------9---------
--------------------------------------------------------------------------------
--------------------------------------------------------------------------------
--------------------------------------------------------------------------------

    Bb/D               A/C#                Bb           A
-----------------------------------------------1-------------------
--------------------------------------------------3----------------
----------3------------------2-------0--2--3---------3--2----------
-------3-----3-----3------2----------------------------------------
----5-----------5------4-------------------------------------------
-------------------------------------------------------------------

      Gm                 Em7         G#dim           A
sus pupilas contaban historias           para no dormir.
                    ---------4/7--7--7---
                    ---------3/6-----6---
                    ---------4/7-----7---
                    ------2----------6---
                    ---------------------
                    ---------------------

           Bb                 A
-----------------------------------------
-----------------------------------------
------------------------0----------------
---0-h-2-h-3--0-----0------3--2----------
-----------------1-----------------------
-----------------------------------------


ESTROFA 2
           Dm                E7   A7            Dm
Yo era el ultimo mono, un innoble    miron solitario,
        D7                                       Gm
en las bodas algun pasodobles, de suelto... ni hablar.
      Gm    Gm7M      Gm7                Gm6        Bb/D A/C# Bb A
El perfume tabu de Chanel y el cubata de Larios
        Gm                 Em7   A7                   Dm    D7
no acostumbran buscarse un motel    cuando cierran el bar.


       
CORO                             E7II: xx2434    A7II: xx7685
                
                     Gm         E7II              A7II  G#dim Adim Bbdim
Porque siempre hubo clases y yo soy el hombre invisible
         G    A7               D7M  D#dim  Em7  A7                D    
que una noche     sonho un imposible                parecido al amor.
  D7
--5--6--5--------
--7--------9--6--
--5--------------
--7--------------
--5--------------
-----------------

                     Gm             E7II              A7II G#dim Adim Bbdim
Porque el mundo es injusto, chaval,     pero si me provocan
        G  A7               D7M  D#dim  Em7  A7                 D   
yo tambien    se jugarme la boca,               yo tambien se besar.

                                
INTRO

ESTROFA 1
Compartimos la misma toalla, distintos sudores,
todavia quedan islas con playas color azafran.
Fui su medio limon, su cheri, su peor latin lover,
si leccion de espanhol, su desliz, su comme ci, su comme ca.

ESTROFA 2
Pero un dia retiraron las mesas y... hasta otro verano.
Las mejores promesas son esas que no hay que cumplir
y... 'viajeros al tren, que nos vamos', me dijo un milano,
'flaco, portate bien, au revoir, buena suerte en Paris'.

CORO
Porque siempre hubo clases y yo no doy bien de marido.
Otra vez a perder el partido, sin tocar el balon.
Porque el mundo es injusto, chaval, pero si me provocan
yo tambien se jugarme la boca, que te voy a contar.

OUTRO (adaptado de piano)
   Dm                              A7     Dm7M
--------------------5--3--6--5-----12------7----
---3----6--5--8--6--6--5--8--6------------10----
---2----7--6--9--7-----------------12-----10----
-------------------------------------------0----
------------------------------------0-----------
------------------------------------------------
		   
AcordesyTabs.com © 2008 Acordes y Tablaturas para guitarra. Tabs and Chords for guitar. Aviso Legal - Contacto
El uso de este sitio está sujeto a la aceptación de los términos y condiciones (34 usuarios online)