tablaturas, partituras y acordes para guitarra
Busca por banda/artista:
 
y/o título de la canción:
A B C D E F G H I J K L M N O P Q R S T U V W X Y Z 0 1 2 3 4 5 6 7 8 9 / Top 100 tabs
Categorías
Usuarios
usuario:
Darse de alta
password:
Artistas más visitados
Publicidad
TOP acordes y tablaturas de Dos Minutos


Lado Oscuro
de Dos Minutos
Puntúa este acorde/tab:      
(0.4/5)
Reportar este acorde/tab
  Añadir a tus favoritos
  Imprimir
*Intro: A E A E
       (F# E D)x3 F# E D(machacado)

                  A
Voy perdiendo el rumbo,
               E*
no se a donde voy.
            A
Perdí la cabeza,
                E
no se donde quedó.

              A
Sombra ya no tengo,
               E
ella me abandonó.
             A
Todo es muy raro,
          E      E-E
y es lógico.


F#      E     D
Hoy perdí el rumbo.
F#     E      D
Es mi lado oscuro.
Hoy perdí el rumbo.
Es mi lado oscuro.

*Inter: A E A E
       (F# E D)x3 F# E D D

Voy perdiendo el rumbo,
no se a donde voy.
Perdí la cabeza,
no se donde quedó.

Sombra ya no tengo,
ella me abandonó.
Todo es muy raro,
y es lógico.

F#      E     D
Hoy perdí el rumbo.
F#     E      D
Es mi lado oscuro.
F#      E     D
Hoy perdí el rumbo.
F#     E      D
Es mi lado oscuro.

Fin:
           A
e----------5--------------------------------------
B----------5--------------------------------------
G--7p6h7p6-6--------------------------------------
D----------7--------------------------------------
A----------7--------------------------------------
E----------5--------------------------------------




==================================================
*Intro (primera parte):
           A                      E                         <-- Segunda guitarra
e----------------5-5------------------------------
B----------------5-5-----------------9h10p9-------
G--7p6h7p6-------6-6-----7p6h7p6------------9-9---
D----------7-7---7-7--------------------------9---
A------------7---7-7--------------------------7---
E------------5---5-5------------------------------

           A                      E                         <-- Segunda guitarra
e----------------5-5------------------------------
B----------------5-5------------------------------
G--7p6h7p6-------6-6-----7p6h7p6--9--9------------
D----------7-7---7-7-----------------9------------
A------------7---7-7-----------------7------------
E------------5---5-5------------------------------

''''''''''''''''''''''''''''''''''''''''''''''''''
E*:
e-----------------
B-----------------
G-----9h10p9------
D------------9----
A-----------------
E-----------------

''''''''''''''''''''''''''''''''''''''''''''''''''
*Inter (primera parte)
           A                      E                         <-- Segunda guitarra
e----------------5-5------------------------------
B----------------5-5------------------------------
G--7p6h7p6-------6-6-----7p6h7p6------------------
D----------7-7---7-7------------------------------
A------------7---7-7------------------------------
E------------5---5-5------------------------------

           A                      E                         <-- Segunda guitarra
e----------------5-5------------------------------
B----------------5-5------------------------------
G--7p6h7p6-------6-6-----7p6h7p6------------------
D----------7-7---7-7------------------------------
A------------7---7-7------------------------------
E------------5---5-5------------------------------

==================================================
Cualquier cosa, mandame un mail...
		   
AcordesyTabs.com © 2008 Acordes y Tablaturas para guitarra. Tabs and Chords for guitar. Aviso Legal - Contacto
El uso de este sitio está sujeto a la aceptación de los términos y condiciones (35 usuarios online)