tablaturas, partituras y acordes para guitarra
Busca por banda/artista:
 
y/o título de la canción:
A B C D E F G H I J K L M N O P Q R S T U V W X Y Z 0 1 2 3 4 5 6 7 8 9 / Top 100 tabs
Categorías
Usuarios
usuario:
Darse de alta
password:
Artistas más visitados
Publicidad
TOP acordes y tablaturas de Green Day


Basketcase
de Green Day
Puntúa este acorde/tab:      
(0.3/5)
Reportar este acorde/tab
  Añadir a tus favoritos
  Imprimir
INTRO:
e|-----------------------------------------------------------------|
B|-----------------------------------------------------------------|
G|-8-8-8-8---------5-5-5-5-----------------8-8-8-8-----------------|
D|-8-8-8-8-8-8-8-8-5-5-5-5-5-5-5-5-6-6-6-6-8-8-8-8-8-8-8-8-8-8-8-8-|
A|-6-6-6-6-8-8-8-8-3-3-3-3-5-5-5-5-6-6-6-6-6-6-6-6-8-8-8-8-8-8-8-8-|
E|---------6-6-6-6---------3-3-3-3-4-4-4-4---------6-6-6-6-6-6-6-6-|

Chorus:(sometimes I give myself the creeps...)
e|-------------------------|
B|-------------------------|
G|-----------------8-8-8-8-|
D|-5-5-5-5-8-8-8-8-8-8-8-8-|
A|-6-6-6-6-8-8-8-8-6-6-6-6-|
E|-4-4-4-4-6-6-6-6---------|


Verso:
e|------------------------------------------------|
B|------------------------------------------------|
G|-----------------8-8-7-7-5--5-5-------------8-8-|
D|-6-6-6-6-8-8-8-8-8-8-7-7-5--5-5-6-6-6-8-8-8-8-8-|
A|-6-6-6-6-8-8-8-8-6-6-5-5-3--3-3-6-6-6-8-8-8-6-6-|
E|-4-4-4-4-6-6-6-6----------------4-4-4-6-6-6-----|
(it all keeps adding up I think I'm cracking up am I just paranoid? am I just stoned )


Interludio:
e|------------------|
B|------------------|
G|-8-8-----5-5------| 2x
D|-8-8-8-8-5-5-8-8--|
A|-6-6-8-8-3-3-8-8--|
E|-----6-6-----6-6--|


Verso:
e|-----------------------------------------------------------------|
B|-----------------------------------------------------------------|
G|-8-8-8-8---------5-5-5-5-----------------8-8-8-8-----------------|
D|-8-8-8-8-8-8-8-8-5-5-5-5-5-5-5-5-6-6-6-6-8-8-8-8-8-8-8-8-8-8-8-8-|
A|-6-6-6-6-8-8-8-8-3-3-3-3-5-5-5-5-6-6-6-6-6-6-6-6-8-8-8-8-8-8-8-8-|
E|---------6-6-6-6---------3-3-3-3-4-4-4-4---------6-6-6-6-6-6-6-6-|
(I went to a shrink, to analize my dreams)


CHORUS:
e|-------------------------|
B|-------------------------|
G|-----------------8-8-8-8-|
D|-5-5-5-5-8-8-8-8-8-8-8-8-|
A|-6-6-6-6-8-8-8-8-6-6-6-6-|
E|-4-4-4-4-6-6-6-6---------|


Verso:
e|------------------------------------------------|
B|------------------------------------------------|
G|-----------------8-8-7-7-5--5-5-------------8-8-|
D|-6-6-6-6-8-8-8-8-8-8-7-7-5--5-5-6-6-6-8-8-8-8-8-|
A|-6-6-6-6-8-8-8-8-6-6-5-5-3--3-3-6-6-6-8-8-8-6-6-|
E|-4-4-4-4-6-6-6-6----------------4-4-4-6-6-6-----|

interludio:
|-----------------|
B|-----------------|
G|-8-8-----5-5-----| 4x
D|-8-8-8-8-5-5-8-8-|
A|-6-6-8-8-3-3-8-8-|
E|-----6-6-----6-6-|



Pre-solo:
e|-----------------|
B|-----------------|
G|-----------------|
D|-6-6-6-6-7-7-7-7-|
A|-6-6-6-6-7-7-7-7-|
E|-4-4-4-4-5-5-5-5-|


Solo:
e|-----------------------------------------------------------------|
B|-----------------------------------------------------------------|
G|-8-8-8-8---------5-5-5-5-----------------8-8-8-8-----------------|2x
D|-8-8-8-8-8-8-8-8-5-5-5-5-5-5-5-5-6-6-6-6-8-8-8-8-8-8-8-8-8-8-8-8-|
A|-6-6-6-6-8-8-8-8-3-3-3-3-5-5-5-5-6-6-6-6-6-6-6-6-8-8-8-8-8-8-8-8-|
E|---------6-6-6-6---------3-3-3-3-4-4-4-4---------6-6-6-6-6-6-6-6-|


CHORUS:
e|-------------------------|
B|-------------------------|
G|-----------------8-8-8-8-|
D|-5-5-5-5-8-8-8-8-8-8-8-8-|
A|-6-6-6-6-8-8-8-8-6-6-6-6-|
E|-4-4-4-4-6-6-6-6---------|




Verso:
e|------------------------------------------------|
B|------------------------------------------------|
G|-----------------8-8-7-7-5--5-5-------------8-8-|
D|-6-6-6-6-8-8-8-8-8-8-7-7-5--5-5-6-6-6-8-8-8-8-8-|
A|-6-6-6-6-8-8-8-8-6-6-5-5-3--3-3-6-6-6-8-8-8-6-6-|
E|-4-4-4-4-6-6-6-6----------------4-4-4-6-6-6-----|

FINAL:
e|-------------------------------------------------|
B|-------------------------------------------------|
G|-8-8-8-8-5-5-5-5---------8-8-8-8-----------------| 3x
D|-8-8-8-8-5-5-5-5-6-6-6-6-8-8-8-8-8-8-8-8-8-8-8-8-|
A|-6-6-6-6-3-3-3-3-6-6-6-6-6-6-6-6-8-8-8-8-8-8-8-8-|
E|-----------------4-4-4-4---------6-6-6-6-6-6-6-6-|




e|---------------------------------|
B|---------------------------------|
G|---------------------------------|
D|----6------2-----8---------------|
A|----6------2-----8---------------|
E|----4------0-----6---------------|
		   
AcordesyTabs.com © 2008 Acordes y Tablaturas para guitarra. Tabs and Chords for guitar. Aviso Legal - Contacto
El uso de este sitio está sujeto a la aceptación de los términos y condiciones (24 usuarios online)