tablaturas, partituras y acordes para guitarra
Busca por banda/artista:
 
y/o título de la canción:
A B C D E F G H I J K L M N O P Q R S T U V W X Y Z 0 1 2 3 4 5 6 7 8 9 / Top 100 tabs
Categorías
Usuarios
usuario:
Darse de alta
password:
Artistas más visitados
Publicidad
TOP acordes y tablaturas de Cartel de Santa


lapelotona
de Cartel de Santa
Puntúa este acorde/tab:      
(0.8/5)
Reportar este acorde/tab
  Añadir a tus favoritos
  Imprimir
E--------------------------------------
B--------0---------------0-------1-0---
G------4---------0-----2-------2------- 
D--4/5-----5---2---3/4-------1---------
A------------3-------------2-----------
E--------------------------------------

Verso:
Se repite 7 veces
E--------------------------------------
B--------5---------------0-------1-0---
G------4---4-----0-----2-------2------- 
D--4/5---------2---3/4-------1---------
A------------3-------------2-----------
E--------------------------------------

E--------------------------------------------
B--------5---------------0-------3-1h3p1-0---
G------4---4-----0-----2-------2------------- 
D--4/5---------2---3/4-------1---------------
A------------3-------------2-----------------
E--------------------------------------------


E--------------------------------------------
B------0--------------0-------3-1h3p1-0------
G----4-------0------2-------2---------------- 
D--5-------2----3/4-------1------------------
A--------3-------------2---------------------
E--------------------------------------------
Eres lo mejor que en mi vida a pasado.....

E--------------------------------------------
B------0--------------0--------1-0-----------
G----4-------0------2-------2---------------- 
D--5-------2----3/4-------1------------------
A--------3-------------2---------------------
E--------------------------------------------

Coro:

E---0-0--------------------0-0------------------
B---1-1--------1---1---0---1-1------1---1---0---
G---2-2------2---2---2-----2-2----2---2----2----
D---0-0----1---------------0-0---1--------------
A---2-2---2----------------2-2--2---------------
E-0----------------------0----------------------

Se Repite 4 veces
E--0-0-0-----------------
B--1-1-1-------1-0-1-----
G--2-2-2-------------2---
D--0-0-0-----1-----------
A--2-2-2---2-------------
E------------------------

Verso 2:
Se repite 5 veces
E--------------------------------------
B--------5---------------0-------1-0---
G------4---4-----0-----2-------2------- 
D--4/5---------2---3/4-------1---------
A------------3-------------2-----------
E--------------------------------------

E--------------------------------------------
B--------5---------------0-------3-1h3p1-0---
G------4---4-----0-----2-------2------------- 
D--4/5---------2---3/4-------1---------------
A------------3-------------2-----------------
E--------------------------------------------

E--------------------------------------------
B------0--------------0-------3-1h3p1-0------
G----4-------0------2-------2---------------- 
D--5-------2----3/4-------1------------------
A--------3-------------2---------------------
E--------------------------------------------
Eres lo mejor que en mi vida a pasado.....

E--------------------------------------------
B------0--------------0--------1-0-----------
G----4-------0------2-------2---------------- 
D--5-------2----3/4-------1------------------
A--------3-------------2---------------------
E--------------------------------------------

Coro:

E---0-0--------------------0-0------------------
B---1-1--------1---1---0---1-1------1---1---0---
G---2-2------2---2---2-----2-2----2---2----2----
D---0-0----1---------------0-0---1--------------
A---2-2---2----------------2-2--2---------------
E-0----------------------0----------------------

Se Repite 5 veces
E--0-0-0-----------------
B--1-1-1-------1-0-1-----
G--2-2-2-------------2---
D--0-0-0-----1-----------
A--2-2-2---2-------------
E--------0---------------

E--0-0-0-----------------
B--1-1-1-------1-0-3-----
G--2-2-2-----------------
D--0-0-0-----1-----------
A--2-2-2---2-------------
E--------0---------------

Final:

Se Repite 3 veces 
E---0-0--------------------0-0------------------
B---1-1--------1---1---0---1-1------1---1---0---
G---2-2------2---2---2-----2-2----2---2----2----
D---0-0----1---------------0-0---1--------------
A---2-2---2----------------2-2--2---------------
E-0----------------------0----------------------

E----------1-0-1---1-0---
B------0-4-------4-------
G----0-------------------
D------------------------
A--2---------------------
E------------------------
		   
AcordesyTabs.com © 2008 Acordes y Tablaturas para guitarra. Tabs and Chords for guitar. Aviso Legal - Contacto
El uso de este sitio está sujeto a la aceptación de los términos y condiciones (33 usuarios online)