tablaturas, partituras y acordes para guitarra
Busca por banda/artista:
 
y/o título de la canción:
A B C D E F G H I J K L M N O P Q R S T U V W X Y Z 0 1 2 3 4 5 6 7 8 9 / Top 100 tabs
Categorías
Usuarios
usuario:
Darse de alta
password:
Artistas más visitados
Publicidad
TOP acordes y tablaturas de los Prisioneros


Estás en: Inicio > Letra l > Acordes y tablaturas de los Prisioneros > Que no destrocen tu vida
Que no destrocen tu vida
de los Prisioneros
Puntúa este acorde/tab:      
(1/5)
Reportar este acorde/tab
  Añadir a tus favoritos
  Imprimir
Esta es la version en vivo (EStadio Nacional), cualquier duda mandenme 
un emilio nomas sum_roach@hotmail.com 
Verso 1:
  Como         empezar?
|-555555555----000000--|E
|-666666666----333333--|B
|-777777777----333333--|G
|-777777777----333333--|D
|-555555555----000000--|A
|----------------------|E

Son tus padres      y amigos
|----------------------------|E
|----------------------------|B
|-22222222-------666666x66---|G
|-33333333-------777777x77---|D
|-33333333-------777777x77---|A
|----------------555555x55---|E
Quieren estar
en tu vida para siempre
Tu y ella se aman tanto
No arriesgues mas
No permitas que sus canas
te arruguen tan temprano

oh oh oh         oh oh oh
|----------------------------|E
|----------------------------|B
|-22222222-------666666x66---|G
|-33333333-------777777x77---|D
|-33333333-------777777x77---|A
|----------------555555x55---|E

Coro:
Que nO destrocen tu vida
|-----------------888-88886-5-5/6------------------| 
|--6-5-6-8-6/5-X2-----------------888-88886-5-5/6--|
|-7-7-7-7-7----------------------------------------|
|--------------------------------------------------|
|--------------------------------------------------|
|--------------------------------------------------|                 
No dejes que destrocen tu vida
|--------------------------------------------------|
|--6-5-6-8-6/5-X2---6666--55555--6666--88888-------|
|-7-7-7-7-7---------7777--66666--7777--99999-------|
|--------------------------------------------------|
|--------------------------------------------------|
|--------------------------------------------------|
ah uh uh

Verso 2 (serepite los mismo del verso 1):
Tienen razon
Te han ciudado 20 años
Eres de su piel
No estarias sin sus besos
Pero es tiempo que te dejen
No arriegues mas
No permitas que sus fracasos
te arrastren y te maten
oh oh oh oh oh oh

CORO

Fm#       D            A
No dejes que por nadie tu y ella
G#
se lleguen a odiar
A              G#
oh oh oh oh oh oh 

Que no destrocen tu vida x 4
(La guitarra repite los mismos riff del coro
 hasta el final de la cancion)

Final:
|---------------------|
|--6-5-6-8-6/5-X4-----|
|-7-7-7-7-7-----------|
|---------------------|
|---------------------|
|---------------------|
		   
AcordesyTabs.com © 2008 Acordes y Tablaturas para guitarra. Tabs and Chords for guitar. Aviso Legal - Contacto
El uso de este sitio está sujeto a la aceptación de los términos y condiciones (36 usuarios online)