tablaturas, partituras y acordes para guitarra
Busca por banda/artista:
 
y/o título de la canción:
A B C D E F G H I J K L M N O P Q R S T U V W X Y Z 0 1 2 3 4 5 6 7 8 9 / Top 100 tabs
Categorías
Usuarios
usuario:
Darse de alta
password:
Artistas más visitados
Publicidad
TOP acordes y tablaturas de Kelly family


Estás en: Inicio > Letra K > Acordes y tablaturas de Kelly family > I cant help myself
I cant help myself
de Kelly family
Puntúa este acorde/tab:      
(0.4/5)
Reportar este acorde/tab
  Añadir a tus favoritos
  Imprimir

<!DOCTYPE HTML PUBLIC "-//W3C//DTD HTML 4.0 Frameset//EN">
<HTML>
<HEAD>
<script language="JavaScript1.2">
<!--
if (window.Event) 
  document.captureEvents(Event.MOUSEUP); 
 
function nocontextmenu()  
{
 event.cancelBubble = true
 event.returnValue = false;
 
 return false;
}
 
function norightclick(e) 
{
 if (window.Event) 
 {
  if (e.which == 2 || e.which == 3)
   return false;
 }
 else
  if (event.button == 2 || event.button == 3)
  {
   event.cancelBubble = true
   event.returnValue = false;
   return false;
  }
 
}
 
document.oncontextmenu = nocontextmenu;  
document.onmousedown = norightclick;  
//-->
</script>
<!-- Minus AutoDato -->
<TITLE>I can't help myself</TITLE>
<META NAME="Generator" CONTENT="Stone's WebWriter 3.5">
</HEAD>
<BODY>
<PRE><FONT SIZE="2">
Intro:
    C              Am              F              G
E||-----0--------|-----0---------|----1-0-------|-0-----|
B||-1h3---3--1-1-|-1h3---1/3-1-1-|--------3-1---|---3---|
G||-0--------0-0-|-2---------2-2-|------------2-|-----0-|
D||--------------|---------------|--------------|-------|
A||-3------------|-0-------------|--3-----------|-------|
E||--------------|---------------|-1------------|-3-----|

Verse: (Kun fřrste vers, de nćste vers slĺr du bare pĺ strengede)
     C                   Am
E||---------0-------------------0----------|
B||-------1-----1-------------1-----1------|
G||-----0---------0---------2---------2----|
D||-----------------2-------------------2--|
A||--3-------------------0-----------------|
E||----------------------------------------|
     F                   G
E||---------1-------------------3----------|
B||-------1-----1-------------3-----3------|
G||-----2---------2---------0---------0----|
D||-----------------3-------------------0--|
A||----------------------------------------|
E||--1-------------------3-----------------|
Chorus:

E||--0-0-0-0---1-1-1---0-0-0---3-3-3-3-----|
B||--1-1-1-1---1-1-1---1-1-1---3-3-3-3-----|
G||--0-0-0-0---2-2-2---0-0-0---0-0-0-0-----|
D||--2-2-2-2---3-3-3---2-2-2---0-0-0-0-----|
A||--3-3-3-3---3-3-3---3-3-3---2-2-2-2-----|
E||------------1-1-1-----------3-3-3-3-----|

E||--0-0-0-0---1-1-1-1---1-1-1-1-----------|
B||--1-1-1-1---1-1-1-1---0-0-0-0-----------|
G||--0-0-0-0---2-2-2-2---0-0-0-0-----------|
D||--2-2-2-2---3-3-3-3---0-0-0-0-----------|
A||--3-3-3-3---3-3-3-3---2-2-2-2-----------|
E||------------1-1-1-1---3-3-3-3-----------|



		   
AcordesyTabs.com © 2008 Acordes y Tablaturas para guitarra. Tabs and Chords for guitar. Aviso Legal - Contacto
El uso de este sitio está sujeto a la aceptación de los términos y condiciones (35 usuarios online)