tablaturas, partituras y acordes para guitarra
Busca por banda/artista:
 
y/o título de la canción:
A B C D E F G H I J K L M N O P Q R S T U V W X Y Z 0 1 2 3 4 5 6 7 8 9 / Top 100 tabs
Categorías
Usuarios
usuario:
Darse de alta
password:
Artistas más visitados
Publicidad
TOP acordes y tablaturas de Divididos


Que tal
de Divididos
Puntúa este acorde/tab:      
(0.2/5)
Reportar este acorde/tab
  Añadir a tus favoritos
  Imprimir
Intro

G|--------------------------------|
D|--------------------------------|
A|--------------------------------|
E|--3-3-3-3-3-3-3---3-3-3-3-1-2-3-|



Verso

G|----------------------------|
D|----------------------------| (repite varias veces)
A|-5--3--2--3--5-5-3-5-5-3-5--| 
E|----------------------------|


|----------------9-9-7--9-9-7------| (ESto lo toca una sola vez
|----------------------------------| en el medio del verso en el
|-5--3--2--3--5--------------------| primer verso y en el segundo 
|----------------------------------| tambien, en el tercero no lo hace)



Estribillo

G|-------------------------------------|
D|-------------------------------------|
A|----------------------2---3---3-4-5--|
E|--5-5-5-5-5-5-5-5-5-5---5---5--------|



Puente (es igual que la intro)

G|--------------------------------|
D|--------------------------------|
A|--------------------------------|
E|--3-3-3-3-3-3-3---3-3-3-3-1-2-3-|



Verso (repite el verso anterior)


Estribillo (repite lo mismo que en el estribillo)


Puente (hace lo mismo que antes)


Solo
(Aca pasa a una parte donde el bajo empieza solo
con un slap muteado y despues se mete la bateria
y luego la guitarra)

G|--------X-----------X-----------|
D|-----X-----------X-----X--------|
A|-----------X--X-----------------|
E|--0-----------------------------|


Puente (aca toca el estribillo y el puente sin cantar)

Verso (vuelve a repetir lo mismo que en los versos)

Estribillo y puente (repite lo mismo que antes y termina)



Esta cancion ya habia sido mandada un par de veces pero 
ninguna estaba bien por completo, aca trate de hacerla 
lo mas aproximada posible a lo que hace Dieguito Arnedo.
Suerte con la cancion, cualquier comentario, queja o lo que sea 
manden un mail a jovenpordiosero@hotmail.com
		   
AcordesyTabs.com © 2008 Acordes y Tablaturas para guitarra. Tabs and Chords for guitar. Aviso Legal - Contacto
El uso de este sitio está sujeto a la aceptación de los términos y condiciones (19 usuarios online)