tablaturas, partituras y acordes para guitarra
Busca por banda/artista:
 
y/o título de la canción:
A B C D E F G H I J K L M N O P Q R S T U V W X Y Z 0 1 2 3 4 5 6 7 8 9 / Top 100 tabs
Categorías
Usuarios
usuario:
Darse de alta
password:
Artistas más visitados
Publicidad
TOP acordes y tablaturas de Cky
:: Fat f - Cky


Estás en: Inicio > Letra C > Acordes y tablaturas de Cky > Inhuman creation station
Inhuman creation station
de Cky
Puntúa este acorde/tab:      
(0.5/5)
Reportar este acorde/tab
  Añadir a tus favoritos
  Imprimir


Author/Artist: Cky
Title: Inhuman Creation Staion
Album: 3rd
Transcribed by: Aaron Patey
Email: ace_29@hotmail.com
Tuning: 1/2 step low

rock...
                                                                              

INTRO/VERSERIFF
INTERLUDE
CHORUS

------------------------------------------------------------------------------
------------------------------------------------------------------------------
---0-2-0----------------0-2-0-------------------------------------------------
-2-------4-0----------2-------4-0---------------------------------------------
-------------222-222----------------------------------------------------------
-------------000-000----------------------------------------------------------
                                                                              

-------------------------|----------------------------------------------------
-------------------------|----------------------------------------------------
-----0---------4-2-0---0-|---0-2-0--------------------------------------------
-0-4---4-2-0---------4---|-2-------4-0----------------------------------------
-------------2-----------|-------------222-222--------------------------------
-------------------------|-------------000-000--------------------------------
                                                                              

------------------------------------------------------------------------------
------------------------------------------------------------------------------
-------2------------------------2-------2-------------------------------------
-0h2h5---5-22-222---X8----0h2h5---0h2h5---------------------------------------
--------------222-------------------------------------------------------------
--------------000-------------------------------------------------------------
                                                                              

------------------------------------------------------------------------------
------------------------------------------------------------------------------
-------------------4444444444444444-------------------------------------------
--5555555555555555-2222222222222222-------------------------------------------
--3333333333333333------------------------------------------------------------
------------------------------------------------------------------------------
                                                                              



		   
AcordesyTabs.com © 2008 Acordes y Tablaturas para guitarra. Tabs and Chords for guitar. Aviso Legal - Contacto
El uso de este sitio está sujeto a la aceptación de los términos y condiciones (32 usuarios online)