tablaturas, partituras y acordes para guitarra
Busca por banda/artista:
 
y/o título de la canción:
A B C D E F G H I J K L M N O P Q R S T U V W X Y Z 0 1 2 3 4 5 6 7 8 9 / Top 100 tabs
Categorías
Usuarios
usuario:
Darse de alta
password:
Artistas más visitados
Publicidad
TOP acordes y tablaturas de Cky
:: Fat f - Cky


Estás en: Inicio > Letra C > Acordes y tablaturas de Cky > 96 quite better beings
96 quite better beings
de Cky
Puntúa este acorde/tab:      
(0.3/5)
Reportar este acorde/tab
  Añadir a tus favoritos
  Imprimir


Author/Artist: CKY
Title: 96'-Quite-Better-Beings
Transcribed by: Kevin Greenberger
Email: Ride1625@aol.com

Here is an awesome CKY song, I hope you enjoy it.

-------0-------------------0---8----------------------------------------------
-10----7--7-10--------10-9-------10-----------10------------------------------
----9----------9-10-9------------10-12-10-9-7----9-10-------------------------
------------------------------------------------------------------------------
------------------------------------------------------------------------------
------------------------------------------------------------------------------
                                                                              

--0-0-0----|-0----------------------------------------------------------------
--2-2-2----|-2---4-4-4--------------------------------------------------------
--2-2-2----|-2---6-6-6--------------------------------------------------------
-----------|-----6-6-6--------------------------------------------------------
-----------|------------------------------------------------------------------
-----------|------------------------------------------------------------------
                                                                              



		   
AcordesyTabs.com © 2008 Acordes y Tablaturas para guitarra. Tabs and Chords for guitar. Aviso Legal - Contacto
El uso de este sitio está sujeto a la aceptación de los términos y condiciones (32 usuarios online)