tablaturas, partituras y acordes para guitarra
Busca por banda/artista:
 
y/o título de la canción:
A B C D E F G H I J K L M N O P Q R S T U V W X Y Z 0 1 2 3 4 5 6 7 8 9 / Top 100 tabs
Categorías
Usuarios
usuario:
Darse de alta
password:
Artistas más visitados
Publicidad
TOP acordes y tablaturas de Green day


Estás en: Inicio > Letra G > Acordes y tablaturas de Green day > Secret song from dookie album
Secret song from dookie album
de Green day
Puntúa este acorde/tab:      
(0.4/5)
Reportar este acorde/tab
  Añadir a tus favoritos
  Imprimir

Title : Secret Song after F.O.D
Author : a drunken Billie Joe
Group : Green Day
Transcribed by : Brian S

key - ^ hammer on

  D                      Dsus4                D
E-2~~|~--2----2---2-----^3~~~--3----3----3----2~-|---------------
B-3--|3-----3---3----3~--3--3----3----3----3--3~-|---------------
G----|-------------------------------------------|---------------
D-0--|-------------------0--------------------0~-|---------------
A----|-------------------------------------------|---------------
E----|-------------------------------------------|---------------
       Do this a few times                          I was all by

Bridge :
   E                      Esus4                E       
E--4~|~-4------4-----4---^5~~~--5----5---5-----4~--|-----------------
B--5-|5-----5-----5----5--5--5-----5---5---5~--5~--|-----------------
G----|---------------------------------------------|-----------------
D--0-|--------------------0--------------------0~--|-----------------
A----|---------------------------------------------|-----------------
E----|---------------------------------------------|-----------------
  myself. 2x than go back to verse 

     And thats it!!!! 
>>>>>>>    >>>>>>>>>>         ^
>      >    >                 ^ 
>>>>>>>      >>>>>>>>>        ^
>      >               >      ^
>>>>>>>         >>>>>>>>>     .
                      
 


		   
AcordesyTabs.com © 2008 Acordes y Tablaturas para guitarra. Tabs and Chords for guitar. Aviso Legal - Contacto
El uso de este sitio está sujeto a la aceptación de los términos y condiciones (15 usuarios online)