tablaturas, partituras y acordes para guitarra
Busca por banda/artista:
 
y/o título de la canción:
A B C D E F G H I J K L M N O P Q R S T U V W X Y Z 0 1 2 3 4 5 6 7 8 9 / Top 100 tabs
Categorías
Usuarios
usuario:
Darse de alta
password:
Artistas más visitados
Publicidad
TOP acordes y tablaturas de Cky
:: Fat f - Cky


Estás en: Inicio > Letra C > Acordes y tablaturas de Cky > Knee deep
Knee deep
de Cky
Puntúa este acorde/tab:      
(0.2/5)
Reportar este acorde/tab
  Añadir a tus favoritos
  Imprimir

The guitarist for cky is awesome so is the singer. For this song you can paly
It at normal tuning (eadgbe) or tuned down one half step (Eb Ab Db Gb Bb Eb)
Either way the song still sounds good. I know that the song is not perfect and is
Not finished but I’m working on it. Anyways here it is.

Bend= ^

|----------------------------------------------|
|----------------------------------------------|
|----------------------------------------------|
|-------9^--7--77-57---7 ---7-75---5---7-75----|
|0--7------------------7-----------5-----------|
|----------------------5-----------3-----------|
               (repeat approx. 4 time’s)

some people don’t know……
|------------------------------------------------|
|------------------------------------------------|
|------------------------------------------------|
|2-------------------7---------5-------2---------|
|2-------------------7---------5-------2---------|
|0-------------------5---------3-------0---------|

I hope you enjoy and keep playing the guitar. Right now I’m working
On the solo. Get that to you as soon a possible.

Lyrics: 
Some people don’t know
Don’t know what is wrong
So they’re knee deep
Knee deep in sorrow


		   
AcordesyTabs.com © 2008 Acordes y Tablaturas para guitarra. Tabs and Chords for guitar. Aviso Legal - Contacto
El uso de este sitio está sujeto a la aceptación de los términos y condiciones (45 usuarios online)