tablaturas, partituras y acordes para guitarra
Busca por banda/artista:
 
y/o título de la canción:
A B C D E F G H I J K L M N O P Q R S T U V W X Y Z 0 1 2 3 4 5 6 7 8 9 / Top 100 tabs
Categorías
Usuarios
usuario:
Darse de alta
password:
Artistas más visitados
Publicidad
TOP acordes y tablaturas de Killing heidi


Astral boy
de Killing heidi
Puntúa este acorde/tab:      
(0.1/5)
Reportar este acorde/tab
  Añadir a tus favoritos
  Imprimir

"Atral Boy" by Killing Heidi
Tab by Jay Bartholomew jaybar36@hotmail.com

It's easier than it looks, just keep practicing and you'll be 
satisfied.  It's all put together with lyrics at the bottom.

Part 1:
    C             D           Cadd9
e|----------------2------2----3------3----------------------
A|--0-1----0-1------3------3----3------3--------------------
B|----------------------------------------------------------
G|--2---2--2---0--0---0--2----2---2--2---2------------------
D|----------------------------------------------------------
E|----------------------------------------------------------

            C
e|----------0-----------------------------------------------
A|--3-3-------1---------------------------------------------
B|------0-------0-------------------------------------------
G|--------2-------------------------------------------------
D|--2-3-----3-----------------------------------------------
E|----------------------------------------------------------
Repeat 4 times

Part 2: 
   C              G             A
e|----------------------------------------------------------
A|--1------1------3------3------2------2--------------------
B|----0------0------0------0------2------2------------------
G|----------------------------------------------------------
D|--3---3--3---3--2---2--2---2--0---0--0---0----------------
E|----------------------------------------------------------
       Cadd9
e|----------------------------------------------------------
A|--2--3------3---------------------------------------------
B|-------0------0-------------------------------------------
G|----------------------------------------------------------
D|--2--3---3--3---3-----------------------------------------
E|----------------------------------------------------------
Repeat 2 times

Part 1, 2 times

Part 2, 2 times

Part 3:
                          
e|---------------------------------------------------2---2--
A|--5-7-5--4-0--3-5-3--2----1---1---1---1----------0-0-0----
B|-----------------------2----0---0---0---0------2----------
G|----------------------------------------------------------
D|--7-7-7--6-6--5-5-5--4-4--3-------3--------2-2------------
E|----------------------------------------------------------


e|----------------------------------------------------------
A|--5---0-5-7--3---0-3------5---0-5-7--3---0-3--------------
B|----0----------0-----0------0----------0-----0------------
G|----------------------------------------------------------
D|--7-----7-7--5-----5------7-----7-7--5-----5--------------
E|----------------------------------------------------------

e|---------------------------------------------------2---2--
A|--5-7-5--4-0--3-5-3--2----1---1---1---1----------0-0-0----
B|-----------------------2----0---0---0---0------2----------
G|----------------------------------------------------------
D|--7-7-7--6-6--5-5-5--4-4--3-------3--------2-2------------
E|----------------------------------------------------------

Part 1, 2 times

Part 2, 4 times

Lyrics:

(Play part 1)

Play part 1
Astral boy, you're so high
Will you ever come down?
Soaring over everyone
You're bigger than the stars

Play part 2
Ooooh ooooh ooooh ooooh...
Ahhhh ahhhh ahhhh ahhhh...

Play part 1
Astral boy you're so hot
Will you ever melt?
Flying so close to the sun 
Now you know how I felt

Play part 2
Ooooh ooooh ooooh ooooh...
Ahhhh ahhhh ahhhh ahhhh...

(Play part 3)

Play part 1
Now you're cold you're so alone
Sitting on the floor
Hard wood boards and abstract toys
Suggest you to the door

Play part 2
Ooooh ooooh ooooh ooooh...
Ahhhh ahhhh ahhhh ahhhh...
Ooooh ooooh ooooh ooooh...
Ahhhh ahhhh ahhhh ahhhh...


Corrections or whatever are welcome, jaybar36@hotmail.com


		   
AcordesyTabs.com © 2008 Acordes y Tablaturas para guitarra. Tabs and Chords for guitar. Aviso Legal - Contacto
El uso de este sitio está sujeto a la aceptación de los términos y condiciones (35 usuarios online)