tablaturas, partituras y acordes para guitarra
Busca por banda/artista:
 
y/o título de la canción:
A B C D E F G H I J K L M N O P Q R S T U V W X Y Z 0 1 2 3 4 5 6 7 8 9 / Top 100 tabs
Categorías
Usuarios
usuario:
Darse de alta
password:
Artistas más visitados
Publicidad
TOP acordes y tablaturas de Less Than Jake


Estás en: Inicio > Letra L > Acordes y tablaturas de Less Than Jake > Motown Never Sounded So Good
Motown Never Sounded So Good
de Less Than Jake
Puntúa este acorde/tab:      
(0.3/5)
Reportar este acorde/tab
  Añadir a tus favoritos
  Imprimir


Motown Never Sounded So Good
by Less Than Jake


tabbed by FreddyFox (6-18-2003)
Standard Tuning: EADGBe



This song is quite easy..! The only possible difficulty is the strumming, so jus




Verse 1
Bridge
Chorus
Verse 1 / Verse 2
Bridge
Chorus
Horn Solo Backing
alternative Chorus
Chorus
End




Verse 1 (clean ska)

e|--------------------
B|---8--6--4--6-------
G|---8--6--5--6-------4x
D|---8--6--6--6-------
A|---6--4--6--4-------
E|---------4----------

At the third time a second Guitar plays the first chord with a flanger effect (I
just when the first guitar changes to the second chord.

Bridge (clean ska)

e|---------------------------
B|---6--4--2--4--6--4--------
G|---6--5--3--5--6--5--------
D|---6--6--4--6--6--6--4--6--
A|---4--6--4--6--4--6--2--4--
E|------4--2--4-----4--------



Chorus (distortion)

e|---------------------------    |---------------------
B|---------------------------    |---------------------
G|---8--5--------------------2x  |---8--6-----6--------1x
D|---8--5--3--5--6--11-------    |---8--6--6--6--------
A|---6--3--3--5--6--11-------    |---6--4--6--4--------
E|---------1--3--4---9-------    |---------4-----------



Verse 1 (clean ska)|   Verse 2 (clean ska)
|
e|--------------------|   
B|---8--6--4--6-------|  
G|---8--6--5--6-------2x|    When the beat is going faster (Text: "Does it feel 
D|---8--6--6--6-------|    you have to play the same chords like in Verse 1, but
A|---6--4--6--4-------|    chord longer. You also have to play it a bit faster, 
E|---------4----------|    out.
|



Bridge (now with distortion)

e|--------------------------------
B|--------------------------------
G|--------------------------------
D|---6-------3---3----6-----4--6--
A|---4--6--3-3-3-3-3--4--6--2--4--
E|------4--1-1-1-1-1-----4--------



Chorus (distortion)

e|---------------------------    
B|---------------------------    
G|---8--5--------------------2x
D|---8--5--3--5--6--11-------    
A|---6--3--3--5--6--11-------    
E|---------1--3--4---9-------  

(The last chord is played longer)
      


Horn Solo Backing

e|------------------------------|---------------
B|------------------------------|---------------
G|---8--6-----6-----6-----------    3x  |---8--6--------   1x
D|---8--6--6--6--6--6--6--------|---8--6--4--6--
A|---6--4--6--4--6--4--6--------|---6--4--2--4--
E|---------4-----4-----4--------|---------------



alternative Chorus (clean)

(Here with exact strumming)
Guitar 1
e|-------------------------------------------------------
B|-------------------------------------------------------
G|-------------------------------------------------------
D|---88888888--55555555--33333333------------------------
A|---66666666--33333333--11111111----6---6---------------
E|---------------------------------44-444-4--------------

Guitar 2
e|-----------------------
B|-----------------------
G|-----------------------
D|-----653---------------
A|-----4316--------------
E|--------4--------------



Chorus (distortion)
      
e|---------------------------    
B|---------------------------    
G|---8--5--------------------4x
D|---8--5--3--5--6--11-------    
A|---6--3--3--5--6--11-------    
E|---------1--3--4---9-------

(The last chord is played longer)



End

e|----------
B|----------
G|---8--8-- 
D|---8--8--
A|---6--6--
E|----------

 = slide down



---
*phew* Was a piece of hard work.. It sure isn't 100%-ly correct, because it's my
but it should be ok. If you have any comments, please eMail me (FreddyFox@gmx.ne
		   
AcordesyTabs.com © 2008 Acordes y Tablaturas para guitarra. Tabs and Chords for guitar. Aviso Legal - Contacto
El uso de este sitio está sujeto a la aceptación de los términos y condiciones (17 usuarios online)