tablaturas, partituras y acordes para guitarra
Busca por banda/artista:
 
y/o título de la canción:
A B C D E F G H I J K L M N O P Q R S T U V W X Y Z 0 1 2 3 4 5 6 7 8 9 / Top 100 tabs
Categorías
Usuarios
usuario:
Darse de alta
password:
Artistas más visitados
Publicidad
TOP acordes y tablaturas de Idlewild


Estás en: Inicio > Letra I > Acordes y tablaturas de Idlewild > You held the world in your arms
You held the world in your arms
de Idlewild
Puntúa este acorde/tab:      
(0.7/5)
Reportar este acorde/tab
  Añadir a tus favoritos
  Imprimir

Idlewild
You Held The World In Your Arms

Intro:
Guitar 1
e|----------------------------------
B|----------------------------------
G|--6-8-8-9-8---8-8-9-8---8-6--8-6-- X2
D|------------9---------9-----------
A|----------------------------------
E|----------------------------------

Guitar 2
e|-------------------------------
B|-------------------------------
G|--6-----9----------------------
D|--6-----9---------9-------7----
A|--4-----7---------9-------7----
E|------------------7-------5----


Verse
Guitar 1 - ?

Guitar 2
e|------------------
B|------------------
G|--6---------------
D|--6---7---9-------
A|--4---7---9-------
E|------5---7-------


Bridge
Guitar 1
e|--5-4-0-5-4-0-5-4-0--   etc…
B|---------------------
G|---------------------
D|---------------------
A|---------------------
E|---------------------

Guitar 2
e|-------------
B|-------------
G|------6---4--
D|--7---6---4--
A|--7---4---2--
E|--5----------



Chorus:
(Same as Intro)

Solo:
Guitar 1
e|-------------------------
B|-------------------------
G|--6/9-7-6---6/9---8-6---- X2
D|----------9-----9--------
A|-------------------------
E|-------------------------

Guitar 2
Do Chorus/Intro riff.


Song Order
Intro
Verse
Bridge
Chorus
Verse
Bridge
Chorus
Solo
Chorus

Guitar 1 end on:            Guitar 2 end on:
e|-------                   e|-------
B|-------                   B|-------
G|---6---                   G|---6---
D|-------                   D|---6---
A|-------                   A|---4---
E|-------                   E|-------



And that’s that.

The only part I don’t know is the verse for guitar 1 – sorry.


		   
AcordesyTabs.com © 2008 Acordes y Tablaturas para guitarra. Tabs and Chords for guitar. Aviso Legal - Contacto
El uso de este sitio está sujeto a la aceptación de los términos y condiciones (10 usuarios online)