tablaturas, partituras y acordes para guitarra
Busca por banda/artista:
 
y/o título de la canción:
A B C D E F G H I J K L M N O P Q R S T U V W X Y Z 0 1 2 3 4 5 6 7 8 9 / Top 100 tabs
Categorías
Usuarios
usuario:
Darse de alta
password:
Artistas más visitados
Publicidad
TOP acordes y tablaturas de Misc


Estás en: Inicio > Letra M > Acordes y tablaturas de Misc > Symphony number one
Symphony number one
de Misc
Puntúa este acorde/tab:      
(0.3/5)
Reportar este acorde/tab
  Añadir a tus favoritos
  Imprimir


Author/Artist: A-J Holland
Title: symphonie nr.1
Transcribed by: A-J Holland
Email: aj.legend@mailcity.com

play this hard and fast.... as fast as you can.... good luck.

good rockin'             a-j

------------------------------------------------------------------------------
-12-0-10-0-12-0-8-0-12-0-7-0-12v------12-0-10-12-0-8-10-0-7-8-0-7-10-0-7------
------------------------------------------------------------------------------
------------------------------------------------------------------------------
------------------------------------------------------------------------------
------------------------------------------------------------------------------
                                                                              

------------------------------------------------------------------------------
-0-8-0-7-0-5-0-7-0-4h5v----------4h5h7-5/8----------7h8h10-7/12---------------
---------------------------4h5h7-------------7h8h10-------------11h12h14------
------------------------------------------------------------------------------
------------------------------------------------------------------------------
------------------------------------------------------------------------------
                                                                              

--------------------------12h14p12--10h12p10--9h10p9-7--------------12h13h15p-
--11h12h14-15v--20v----------------------------------------12h13h15-----------
------------------------------------------------------------------------------
------------------------------------------------------------------------------
------------------------------------------------------------------------------
------------------------------------------------------------------------------
                                                                              

-13p12------------------------------------------------------------------------
-------15p13p12--10h12p10--13p12p10----------------9-9--7---------------------
------------------------------------13p12p10p9----9-9--7---------------------
---------------------------------------------------7-7--5---2-----------------
------------------------------------------------------------2-----------------
------------------------------------------------------------0-----------------
                                                                              



		   
AcordesyTabs.com © 2008 Acordes y Tablaturas para guitarra. Tabs and Chords for guitar. Aviso Legal - Contacto
El uso de este sitio está sujeto a la aceptación de los términos y condiciones (27 usuarios online)