tablaturas, partituras y acordes para guitarra
Busca por banda/artista:
 
y/o título de la canción:
A B C D E F G H I J K L M N O P Q R S T U V W X Y Z 0 1 2 3 4 5 6 7 8 9 / Top 100 tabs
Categorías
Usuarios
usuario:
Darse de alta
password:
Artistas más visitados
Publicidad
TOP acordes y tablaturas de Placebo


Estás en: Inicio > Letra P > Acordes y tablaturas de Placebo > Buger queen
Buger queen
de Placebo
Puntúa este acorde/tab:      
(0.3/5)
Reportar este acorde/tab
  Añadir a tus favoritos
  Imprimir

PART 1.......
eb|-------------------|------------------|----------------|----------------|
Bb|-------------------|------------------|----------------|----------------|
Gb|-------------------|------------------|----------------|----------------|
Db|-------------------|------------------|----------------|----------------|
Ab|--4---4---5---4----|-----4-4---4--4---|--0--0-0-----0--|--0--0----0--0--|
Eb|--5---5---5---5----|-----5-5---5--5---|--2--2-2-/s/-5--|--5--5----5--5--|
eb|-------------------|-------------------|-----------------------|----------------|
Bb|-------------------|-------------------|-----------------------|----------------|
Gb|-------------------|-------------------|-----------------------|----------------|
Db|-------------------|--2----------------|-----------------------|----------------|
Ab|--4-/s/--2--2--2---|-----2---2---2--2--|-------5-----5-------4-|-2--------0-----|
Eb|--0---------0--0---|---------0---0--0--|--/s/--0-----0-------0-|-0--------0-----|
PART 2........*   ============= EQUALS REPEATED PICKING (SOFTLY)
eb|--------------------------------------------------------------------------------|
Bb|---14========-12==========10========9------5-5-5---14======12========14======12-|
Gb|--------------------------------------------------------------------------------|
Db|--------------------------------------------------------------------------------|
Ab|--------------------------------------------------------------------------------|
Eb|--------------------------------------------------------------------------------|
PART 3...........eb|-----------------------|R|------------------------------|R|
Bb|-----------------------|R|------------------------------|R|
Gb|-----------------------|R|------------------------------|R|
Db|-------------6---------|R|---6-6-6-6------4-----6-6-6-6-|R|
Ab|--4--4--4----7---------|R|---7-7-7-7--S-5-/S/-7-7-7-7-|R|
Eb|--5--5--5--------------|R|------------------------------|R|   R = REPEAT
PART 4eb|-----------------------------------------------------------|
Bb|---10========-9===10======12--10---9-9-9----4---5========--|
Gb|-----------------------------------------------------------|
Db|-----------------------------------------------------------|
Ab|-----------------------------------------------------------|
Eb|-----------------------------------------------------------|
REPEAT A FEW TIMES THEN.....
eb|-----------------------------------------------------------|
Bb|---10========-9===10=================12--9=================|
Gb|-----------------------------------------------------------|
Db|-----------------------------------------------------------|
Ab|-----------------------------------------------------------|
Eb|-----------------------------------------------------------|PART 5
eb|------------------------------------------------|R|
Bb|---10=====================-9====================|R|
Gb|------------------------------------------------|R|
Db|------------------------------------------------|R|
Ab|------------------------------------------------|R|
Eb|------------------------------------------------|R|PART 6
eb|------------------------------------------------|R|
Bb|------------------------------------------------|R|
Gb|------------------------------------------------|R|
Db|------------------------------------------------|R|
Ab|------------------------------------------------|R|
Eb|----(7)--(7)------------------------------------|R|PART 7
eb|-------------------------------------------------|R|
Bb|-------------------------------------------------|R|
Gb|-------------------------------------------------|R|
Db|----11------------------10-10------6-------------|R|
Ab|----12================= 11 11------7=============|R|
Eb|-------------------------------------------------|R|
PARTS1 AND 2 ARE PLAYED TOGETHERPARTS 3 AND 4 ARE PLAYED TOGETHER
PARTS 5,6 AND SEVEN ARE PLAYED TOGETHER

		   
AcordesyTabs.com © 2008 Acordes y Tablaturas para guitarra. Tabs and Chords for guitar. Aviso Legal - Contacto
El uso de este sitio está sujeto a la aceptación de los términos y condiciones (24 usuarios online)