tablaturas, partituras y acordes para guitarra
Busca por banda/artista:
 
y/o título de la canción:
A B C D E F G H I J K L M N O P Q R S T U V W X Y Z 0 1 2 3 4 5 6 7 8 9 / Top 100 tabs
Categorías
Usuarios
usuario:
Darse de alta
password:
Artistas más visitados
Publicidad
TOP acordes y tablaturas de Pain


Estás en: Inicio > Letra P > Acordes y tablaturas de Pain > Shut your mouth
Shut your mouth
de Pain
Puntúa este acorde/tab:      
(0.9/5)
Reportar este acorde/tab
  Añadir a tus favoritos
  Imprimir


Solo:
e)----2---3-2-0-2-0-2-3-3-2-0--
B)--0---0----------------------
G)-----------------------------
D)-----------------------------
A)-----------------------------
E)-----------------------------

e)----2---3-2-0----------------
B)--0---0-------3-5-3-2-2-3-2--
G)-----------------------------
D)-----------------------------
A)-----------------------------
E)-----------------------------

Main riff (distortion):
e)-----------------------------------
B)-----------------------------------
G)----------9-9-9-9-7-7-7-7----------
D)--9-9-9-9-9-9-9-9-7-7-7-7-5-5-5-5--
A)--9-9-9-9-7-7-7-7-5-5-5-5-5-5-5-5--
E)--7-7-7-7-----------------3-3-3-3--

e)-----------------------------------
B)-----------------------------------
G)----------9-9-9-9------------------
D)--9-9-9-9-9-9-9-9-5-5-5-5-4-4-4-4--
A)--9-9-9-9-7-7-7-7-5-5-5-5-4-4-4-4--
E)--7-7-7-7---------3-3-3-3-2-2-2-2--

		   
AcordesyTabs.com © 2008 Acordes y Tablaturas para guitarra. Tabs and Chords for guitar. Aviso Legal - Contacto
El uso de este sitio está sujeto a la aceptación de los términos y condiciones (32 usuarios online)