tablaturas, partituras y acordes para guitarra
Busca por banda/artista:
 
y/o título de la canción:
A B C D E F G H I J K L M N O P Q R S T U V W X Y Z 0 1 2 3 4 5 6 7 8 9 / Top 100 tabs
Categorías
Usuarios
usuario:
Darse de alta
password:
Artistas más visitados
Publicidad
TOP acordes y tablaturas de Metallica


Estás en: Inicio > Letra M > Acordes y tablaturas de Metallica > Ecstasy of gold
Ecstasy of gold
de Metallica
Puntúa este acorde/tab:      
(0.1/5)
Reportar este acorde/tab
  Añadir a tus favoritos
  Imprimir

ECSTACY OF GOLD (Live)
As recorded by Metallica
(From the 1999 Album S&M)

Transcribed by Daniel Pacheco

 Music by Metallica

 
Gtr I (E A D G B E) - 'Spĺr 1'
Gtr II (D A D G B E) - 'Spĺr 2'
Gtr III (E A D G B E) - 'Spĺr 4'


  Q=153
  Am
 4/4
  Gtr I
  E E E E E E E E   E E E E E E E E   E E E E E E E E   E E E E E E E E
|-----------------|-----------------|-----------------|------------------|
|-0-1-----0-1-----|-0-1-----0-1-----|-0-1-----0-1-----|-0-1-----0-1------|
|-----2-------2---|-----2-------2---|-----2-------2---|-----2-------2----|
|-------2-------2-|-------2-------2-|-------2-------2-|-------2-------2--|
|-0---------------|-----------------|-----------------|------------------|
|-----------------|-----------------|-----------------|------------------|


                                        Csus2
  E E E E E E E E    E  E E E E E E E    E  E E E E E E E    E  E E E E E E E
|-----------------|-------------------|-----0-------0-----|-----0-------0-----|
|-0-1-----0-1-----|--0--1-----0-1-----|--3----1---3---1---|--3----1---3---1---|
|-----2-------2---|-------2-------2---|---------0-------0-|---------0-------0-|
|-------2-------2-|---------2-------2-|-------------------|-------------------|
|-----------------|-------------------|--3----------------|-------------------|
|-----------------|-------------------|-------------------|-------------------|
|
| Gtr III
| H       H         +W                  +W                  +W
|-----------------|-------------------|-------------------|-------------------|
|---------5-------|-(5)---------------|-(5)---------------|-(5)---------------|
|-2---------------|-------------------|-------------------|-------------------|
|-----------------|-------------------|-------------------|-------------------|
|-----------------|-------------------|-------------------|-------------------|
|-----------------|-------------------|-------------------|-------------------|


                                                            D
  E E E E E E E E    E  E E E E E E E    E  E E E E E E E   E E E E E E E E
|---0-------0-----|-----0-------0-----|-----0-------0-----|-0-2-----0-2-----|
|-3---1---3---1---|--3----1---3---1---|--3----1---3---1---|-----3-------3---|
|-------0-------0-|---------0-------0-|---------0-------0-|-------2-------2-|
|-----------------|-------------------|-------------------|-0---------------|
|-----------------|-------------------|-------------------|-----------------|
|-----------------|-------------------|-------------------|-----------------|
|
| Gtr II
| W                  W                   W                  W
|-----------------|-------------------|-------------------|-----------------|
|-----------------|-------------------|-------------------|-----------------|
|-----------------|-------------------|-------------------|-----------------|
|-----------------|-------------------|-------------------|-0---------------|
|-----------------|-------------------|-------------------|-----------------|
|-----------------|-------------------|-------------------|-0---------------|
|
| Gtr III
| H       H         +W                  +W                  Q   E E E E E E
|-3---------------|-------------------|-------------------|-----------------|
|---------5-------|-(5)---------------|-(5)---------------|-----3-5-3---5-3-|
|-----------------|-------------------|-------------------|-----------2-----|
|-----------------|-------------------|-------------------|-----------------|
|-----------------|-------------------|-------------------|-----------------|
|-----------------|-------------------|-------------------|-----------------|


                      F
   E  E E E E E E E   E  E E E E E E E    E  E E E E E E E   +E  E Q  H
|--0--2-----0-2-----|------------------|-------------------|---------------|
|-------3-------3---|-0--1-----0-1-----|--0--1-----0-1-----|---------------|
|---------2-------2-|------2-------2---|-------2-------2---|---------------|
|-------------------|-3------3-------3-|---------3-------3-|-(3)-----------|
|-------------------|------------------|-------------------|---------------|
|-------------------|-1----------------|-------------------|---------------|
|
| +H.           Q     W                   W                   W
|-------------------|------------------|-------------------|---------------|
|-------------------|------------------|-------------------|---------------|
|-------------------|------------------|-------------------|---------------|
|-(0)---------------|------------------|-------------------|---------------|
|-------------------|------------------|-------------------|---------------|
|-(0)---------------|------------------|-------------------|---------------|
|
|  Q.     E Q   Q     Q.     E H         +W                  +W
|---------0---------|------------------|-------------------|---------------|
|-----------3-------|--------0---------|-------------------|---------------|
|--2------------2---|-2--------2-------|-(2)---------------|-(2)-----------|
|-------------------|------------------|-------------------|---------------|
|-------------------|------------------|-------------------|---------------|
|-------------------|------------------|-------------------|---------------|


               Am                                    Gsus2
   W           E E E E E E E E    E  E E E E E E E    E  E E E E E E E
|------------|-----------------|-------------------|-------------------|
|------------|-0-1-----0-1-----|--0--1-----0-1-----|-----0-------0-----|
|------------|-----2-------2---|-------2-------2---|--2----0---2---0---|
|------------|-------2-------2-|---------2-------2-|---------0-------0-|
|------------|-0---------------|-------------------|-------------------|
|------------|-----------------|-------------------|-----------3-------|
|
| Gtr III
| +W           H       H         +W                  +W
|------------|---------0-------|-(0)---------------|-(0)---------------|
|------------|-----------------|-------------------|-------------------|
|-(2)--------|-2---------------|-------------------|-------------------|
|------------|-----------------|-------------------|-------------------|
|------------|-----------------|-------------------|-------------------|
|------------|-----------------|-------------------|-------------------|


   E  E E E  E  E E E   E E E E E E E E
|---------------------|-----------------|
|-----0---------0-----|---0-------0-----|
|--2----0----2----0---|-2---0---2---0---|
|---------0---------0-|-------0-------0-|
|---------------------|-----------------|
|---------------------|-----------------|
|
| +H        +Q.     E   H       H
|---------------------|-7---------------|
|-(5)-------(5)-------|---------8-------|
|---------------------|-----------------|
|---------------------|-----------------|
|---------------------|-----------------|
|---------------------|-----------------|


   E  E E E E E E E    E  E E E E E E E
|-------------------|-------------------|
|-----0-------0-----|-----0-------0-----|
|--2----0---2---0---|--2----0---2---0---|
|---------0-------0-|---------0-------0-|
|-------------------|-------------------|
|-------------------|-------------------|
|
| +W                  +W
|-------------------|-------------------|
|-(8)---------------|-(8)---------------|
|-------------------|-------------------|
|-------------------|-------------------|
|-------------------|-------------------|
|-------------------|-------------------|


                      Csus2
   E  E E E E E E E   E E E E E E E E    E  E E E E E E E   E E E E E E E E
|-------------------|---0-------0-----|-----0-------0-----|---0-------0-----|
|-----0-------0-----|-3---1---3---1---|--3----1---3---1---|-3---1---3---1---|
|--2----0---2---0---|-------0-------0-|---------0-------0-|-------0-------0-|
|---------0-------0-|-----------------|-------------------|-----------------|
|-------------------|-3---------------|-------------------|-----------------|
|-------------------|-----------------|-------------------|-----------------|
|
| Gtr II
|  W                  W                 +H        Q   Q     W
|-------------------|-----------------|-------------------|-----------------|
|-------------------|-----------------|-----------1---3---|-5---------------|
|-------------------|-0---------------|-(0)---------------|-----------------|
|-------------------|-----------------|-------------------|-----------------|
|-------------------|-----------------|-------------------|-----------------|
|-------------------|-----------------|-------------------|-----------------|
|
| Gtr III
| +W                  Q   E E E E E E    Q.     E Q   Q     W
|-------------------|-----------------|---------3---------|-----------------|
|-(8)---------------|-------8-------3-|--5--------1---3---|-5---------------|
|-------------------|-----9---9-7-5---|-------------------|-----------------|
|-------------------|-----------------|-------------------|-----------------|
|-------------------|-----------------|-------------------|-----------------|
|-------------------|-----------------|-------------------|-----------------|


                               Am
  +E  E Q  H       W           E E E E E E E E    E  E E E E E E E
|---------------|------------|-----------------|-------------------|
|---------------|------------|-0-1-----0-1-----|--0--1-----0-1-----|
|-(0)-----------|------------|-----2-------2---|-------2-------2---|
|---------------|------------|-------2-------2-|---------2-------2-|
|---------------|------------|-0---------------|-------------------|
|---------------|------------|-----------------|-------------------|
|
| Gtrs II, III                 Gtr II
| +W              +W           H       H         +W
|---------------|------------|-----------------|-------------------|
|-(5)-----------|-(5)--------|---------5-------|-(5)---------------|
|---------------|------------|-----------------|-------------------|
|---------------|------------|-7---------------|-------------------|
|---------------|------------|-----------------|-------------------|
|---------------|------------|-----------------|-------------------|


  Csus2
  E E E E E E E E    E  E E E E E E E    E  E E E E E E E
|---0-------0-----|-----0-------0-----|-----0-------0-----|
|-3---1---3---1---|--3----1---3---1---|--3----1---3---1---|
|-------0-------0-|---------0-------0-|---------0-------0-|
|-----------------|-------------------|-------------------|
|-3---------------|-------------------|-------------------|
|-----------------|-------------------|-------------------|
|
| H       H         +W                  +W
|-3---------------|-------------------|-------------------|
|---------5-------|-(5)---------------|-(5)---------------|
|-----------------|-------------------|-------------------|
|-----------------|-------------------|-------------------|
|-----------------|-------------------|-------------------|
|-----------------|-------------------|-------------------|


  D
  E E    E    E    E    E    E    E
|-0-2--------------0----2---------------|
|--------3-------------------3----------|
|-------------2-------------------2-----|
|-0-------------------------------------|
|---------------------------------------|
|---------------------------------------|
|
| E S S +S  E   S +S  E   S +S  E   S
|-----------0-------------0-(0)---------|
|-----3-(3)-----3-(3)-----------3-------|
|---------------------2-------------2---|
|---------------------------------------|
|---------------------------------------|
|---------------------------------------|


                                  F
   E  E  E    E    E  E    E  E   E E  E    E    E  E E E
|--0--2------------0--2---------|-------------------------|
|--------3-----------------3----|-0-1------------0--1-----|
|-------------2---------------2-|------2--------------2---|
|-------------------------------|-3---------3-----------3-|
|-------------------------------|-------------------------|
|-------------------------------|-1-----------------------|
|
| +Q    +S  E   S +E.   S +Q      Q   +S  E   S +H
|-------------------------------|-------------------------|
|-----------5---3-(3)-----------|-------------------------|
|-(2)---(2)-------------2-(2)---|-2---(2)-4---2-(2)-------|
|-------------------------------|-------------------------|
|-------------------------------|-------------------------|
|-------------------------------|-------------------------|


                      Am
   E  E E E E E E E   E E E E E E E E
|-------------------|------------------|
|--0--1-----0-1-----|-0-1-----0-1------|
|-------2-------2---|-----2-------2----|
|---------3-------3-|-------2-------2--|
|-------------------|-0----------------|
|-------------------|------------------|
|
| +W                  H       H
|-------------------|------------------|
|-------------------|---------5--------|
|-(2)---------------|-2----------------|
|-------------------|------------------|
|-------------------|------------------|
|-------------------|------------------|


                      Gsus2
   E  E E E E E E E   E E E E E E E E    E  E E E E E E E
|-------------------|-----------------|-------------------|
|--0--1-----0-1-----|---0-------0-----|-----0-------0-----|
|-------2-------2---|-2---0---2---0---|--2----0---2---0---|
|---------2-------2-|-------0-------0-|---------0-------0-|
|-------------------|-----------------|-------------------|
|-------------------|-3---------------|-------------------|
|
| +W                  H       H         +W
|-------------------|-7---------------|-------------------|
|-(5)---------------|---------8-------|-(8)---------------|
|-------------------|-----------------|-------------------|
|-------------------|-----------------|-------------------|
|-------------------|-----------------|-------------------|
|-------------------|-----------------|-------------------|


  Csus2
  E E    E    E    E    E    E    E
|---0-------------------0---------------|
|-3------1---------3---------1----------|
|-------------0-------------------0-----|
|---------------------------------------|
|-3-------------------------------------|
|---------------------------------------|
|
| E S S +S  E   S +S  E   S +S  E   S
|---------------------------------------|
|-----------8-------------------3---5---|
|-----9-(9)-----9-(9)-7---5-(5)---------|
|---------------------------------------|
|---------------------------------------|
|---------------------------------------|


   E  E  E    E    E  E    E  E   +E  E Q  H       W            W
|-----0---------------0---------|---------------|------------|--------|
|--3-----1---------3-------1----|---------------|------------|--------|
|-------------0---------------0-|-(0)-----------|------------|--------|
|-------------------------------|---------------|------------|--------|
|-------------------------------|---------------|------------|--------|
|-------------------------------|---------------|------------|--------|
|
| +Q    +S  E   S +E.   S +Q       W              +W           +W
|-----------3-------------------|---------------|------------|--------|
|-(5)---(5)-----1-(1)---3-(3)---|--5------------|-(5)--------|-(5)----|
|-------------------------------|---------------|------------|--------|
|-------------------------------|---------------|------------|--------|
|-------------------------------|---------------|------------|--------|
|-------------------------------|---------------|------------|--------|


  Am                                    Csus2
  E E E E E E E E    E  E E E E E E E   E E E E E E E E    E  E E E E E E E
|-----------------|-------------------|---0-------0-----|-----0-------0-----|
|-0-1-----0-1-----|--0--1-----0-1-----|-3---1---3---1---|--3----1---3---1---|
|-----2-------2---|-------2-------2---|-------0-------0-|---------0-------0-|
|-------2-------2-|---------2-------2-|-----------------|-------------------|
|-0---------------|-------------------|-3---------------|-------------------|
|-----------------|-------------------|-----------------|-------------------|
|
| H       H         +W                  H       H         +W
|-----------------|-------------------|-3---------------|-------------------|
|---------5-------|-(5)---------------|---------5-------|-(5)---------------|
|-----------------|-------------------|-----------------|-------------------|
|-7---------------|-------------------|-----------------|-------------------|
|-----------------|-------------------|-----------------|-------------------|
|-----------------|-------------------|-----------------|-------------------|


  D                 F                                   C5
  E E E E E E E E   E E E E E E E E   E E E E E E E E   W
|-0-2-----0-2-----|-----------------|-----------------|-3----|
|-----3-------3---|-0-1-----0-1-----|-0-1-----0-1-----|-1----|
|-------2-------2-|-----2-------2---|-----2-------2---|------|
|-0---------------|-3-----3-------3-|-------3-------3-|------|
|-----------------|-----------------|-----------------|-3----|
|-----------------|-1---------------|-----------------|------|
|
| Q   E E E E E E   H       H         H       H         W
|-----------------|-----------------|-1-------5-------|-3----|
|-----3-5-3---5-3-|---------1-------|-----------------|------|
|-----------2-----|-2---------------|-----------------|------|
|-----------------|-----------------|-----------------|------|
|-----------------|-----------------|-----------------|------|
|-----------------|-----------------|-----------------|------|


  C5/B                       Am         D
  W           +W             W           W
|-3---------|-(3)----------|----------|--2----|
|-1---------|-(1)----------|-1--------|--3----|
|-----------|--------------|-2--------|--2----|
|-----------|--------------|-2--------|--0----|
|-2---------|-(2)----------|-0--------|-------|
|-----------|--------------|----------|-------|
|
| H    H       H      H      W           W
|------4----|--7-----10----|-8--------|-10----|
|-5---------|--------------|----------|-------|
|-----------|--------------|----------|-------|
|-----------|--------------|----------|-------|
|-----------|--------------|----------|-------|
|-----------|--------------|----------|-------|


  Am                       Csus2
  Gtr II
  H    H      +W           H    H      +W
|-----------|------------|-----------|--------|
|-----------|------------|-8---------|--------|
|------9----|-(9)--------|------9----|-(9)----|
|-7---------|------------|-----------|--------|
|-----------|------------|-----------|--------|
|-----------|------------|-----------|--------|


  D                           F
   H     H       +W           H     H       +W
|-------------|-------------|-8----------|---------|
|-------10----|-(10)--------|------10----|-(10)----|
|-------------|-------------|------------|---------|
|-12----------|-------------|------------|---------|
|-------------|-------------|------------|---------|
|-------------|-------------|------------|---------|


  Am                       Gsus2
  H    H      +W           H    H      +W
|-----------|------------|-----------|--------|
|-----------|------------|-8---------|--------|
|------9----|-(9)--------|------9----|-(9)----|
|-7---------|------------|-----------|--------|
|-----------|------------|-----------|--------|
|-----------|------------|-----------|--------|


  Csus2                       F
   H     H       +W           H     H       +W
|-------------|-------------|-8----------|---------|
|-------10----|-(10)--------|------10----|-(10)----|
|-------------|-------------|------------|---------|
|-12----------|-------------|------------|---------|
|-------------|-------------|------------|---------|
|-------------|-------------|------------|---------|


  Am
  H     H       +W            W
|-8----------|-------------|-------*|
|------10----|-(10)--------|-10----*|
|------------|-------------|-------*|
|------------|-------------|-------*|
|------------|-------------|-------*|
|------------|-------------|-------*|




--------------------------------------------------------------------------------


Duration Legend
---------------
W - whole; H - half; Q - quarter; E - 8th; S - 16th; T - 32nd; X - 64th; a - acciaccatura
+ - note tied to previous; . - note dotted; .. - note double dotted
Uncapitalized letters represent notes that are staccato (1/2 duration)
Irregular groupings are notated above the duration line
Duration letters will always appear directly above the note/fret number it represents the
duration for.  Duration letters with no fret number below them represent rests.  Multi-
bar rests are notated in the form Wxn, where n is the number of bars to rest for.  Low
melody durations appear below the staff

Tablature Legend
----------------
 h   - hammer-on
 p   - pull-off
 b   - bend
 pb  - pre-bend
 r   - bend release (if no number after the r, then release immediately)
 /  - slide into or out of (from/to "nowhere")
 s   - legato slide
 S   - shift slide
 - natural harmonic
[n]  - artificial harmonic
n(n) - tapped harmonic
 ~   - vibrato
 tr  - trill
 T   - tap
 TP  - trem. picking
 PM  - palm muting

/  - tremolo bar dip; n = amount to dip
 
  - tremolo bar down
 n/  - tremolo bar up
/n  - tremolo bar inverted dip
 =   - hold bend; also acts as connecting device for hammers/pulls
 <> - volume swell (louder/softer)
 x   - on rhythm slash represents muted slash
 o   - on rhythm slash represents single note slash

Misc Legend
-----------
 |  - bar
||  - double bar
||o - repeat start
o|| - repeat end
*|  - double bar (ending)
 :  - bar (freetime)
 $  - Segno
 &  - Coda
Tempo markers -  = BPM(8/16=s8/s16), where s8 = swing 8ths, s16 = swing 16ths

		   
AcordesyTabs.com © 2008 Acordes y Tablaturas para guitarra. Tabs and Chords for guitar. Aviso Legal - Contacto
El uso de este sitio está sujeto a la aceptación de los términos y condiciones (36 usuarios online)